Your One-Stop Source For
Music Lyrics
Bass and Guitar Tabs
and More...
Music Lyrics Bass and Guitar Tabs

 

The Tabs Are Below

Learn To Read Tab
Chords Handbook
Corrections & Additions
Get Official Tab
QOTSA tabs @ 911Tabs

Queens of the Stone Age

Mexicola

Tuning C F A# D#

 

Intro:

------------------------------------------

------------------------------------------

--------------------------7--------------- x2

-12/0-0-0-0-0-0-0-0-0-0-0---0-0-0-0-------

 

-------------------------------8-------

------------------------------8-8------

----------7-6----7-6-------6-----------

-12/0-0----0-—0-0----0--0-0------------

 

------------------------------------9-8---

--------------------------------8-7-------

----------7-6--------6--------------------

-12/0-0----0—--0-0-0---0------------------

 

------------------------------8---------

-----------------------------8-8--------

----------7-6----7-6-------6------------ x3

-12/0-0----0—-0-0----0-0-0--------------

 

--------------------------------9-8----

-----------------------------8-7-------

----------7-6-----7-6------------------

-12/0-0----0—-0-0-----0-0-0------------

 

 

-----------------------------8-9-------

---------------------------------7-8---

----------7-6-----7-6------------------

-12/0-0----0—-0-0-----0-0-0------------

 

-------------------------------8--------

------------------------------8-8-------

----------7-6-----7-6-------6-----------

-12/0-0----0-—0-0----0-0-0--------------

 

-----------------------------------------

--------------------------------8-7-8-7--

----------7-6-----7-6--------------------

-12/0-0----0-—0-0----0-0-0---------------

 

-------------------------------8--------

------------------------------8-8-------

----------7-6-----7-6-------6-----------

-12/0-0----0—-0-0----0-0-0--------------

 

verse:

 

----------------------------------------

----------------------------------------

---------------------7-7-7-7-7-7-7-7----

--3-3-3-3-3-3-3-3-----------------------

 

Chorus/Outro:

 

---------------------------------------------

---------------------------------------------

-------9------10-10-10--------------------

--0-0----0-0-------------------------------

 

Bridge solo:

-------------------------------8--------

------------------------------8-8-------

----------7-6-----7-6-------6----------- x2

-12/0-0----0—-0-0----0-0-0--------------

 

----------------------------8-9-------

--------------------------------7-8---

----------7-6----7-6------------------

-12/0-0----0—-0-0----0-0-0------------

 

----------------------------------9-8---

------------------------------8-7-------

----------7-6-----7-6-------------------

-12/0-0----0-—0-0----0-0-0--------------

 

-------------------------------8--------

------------------------------8-8-------

----------7-6-----7-6-------6-----------

-12/0-0----0--—0-0----0-0-0-------------

 

---------------------------------------

------------------------------8-7-8-7--

----------7-6-----7-6------------------

-12/0-0----0—-0-0----0-0-0-------------

 

-----------------------------8-9-------

----------------------------------7-8--

----------7-6-----7-6------------------

-12/0-0----0--—0-0----0-0-0------------

 

-------------------------------8-----

------------------------------8-8----

----------7-6-----7-6-------6--------

-12/0-0----0--—0-0----0-0-0----------

 

Enjoi.

 

 

Return to my QOTSA bass tabs page

The Tablature is Copyright its respective owners.

Sign Up For My Newsletter
Subscribe | Unsubscribe

Site Map | Disclaimer | Privacy Policy | Media Kit | Submissions/Corrections

Website © 2000-2014 mattsmusicpage.com. All rights reserved.

Legal & DMCA: Matt's Music Page has been providing lyrics and tabs in a legal way, paying royalties each year to a few organizations. Then, all lyrics and tabs were removed from the site. Now, there's a new owner to the site, which purchased it August 26, 2014, and he is in negotiation to obtain licensing from BMI at the moment. If you have a specific DMCA request -- please do not hesitate to contact me via the contact button on top. I will do my very best to keep this site fully legal.

Get our toolbar!