Your One-Stop Source For
Music Lyrics
Bass and Guitar Tabs
and More...
Music Lyrics Bass and Guitar Tabs

 

The Tabs Are Below

Learn To Read Tab
Chords Handbook
Corrections & Additions
Get Official Tab
QOTSA tabs @ 911Tabs

Do It Again

by Queens Of The Stone Age

from Songs For The Deaf

tabbed by Moe (mounir_karadja@hotmail.com)

 

 

The Queens.. as always play their guitars tuned two full steps down to C.

I don't really care about that, since the key is probably wrong. The

riffs themselves are correct, though. Not going to write down the entire

song with riff orders and stuff, more or less just gonna lay everything

down on you, so you still can say that you did something yourself.

 

 

Note: when I say delay in this tab, I mean actual delay, not the effect.

 

?| intro|

| A A |

G|---------------------------------------------|

D|-------------7(hey!)-------------------------|

A|---------------------------------------------|

E|--5--55--55----------------------------------|

 

Delay on that last note the fourth time, and on a few other places in the

song that you'll have to remember.

 

 

?| verse|

| A C |

G|---------------------------------------------|

D|----------------7(hey!)----------------------|

A|-------7-5-----------------------------------|

E|--5--8-----8-5-------------------------------|

 

This riff is often played three times with the intro riff fourth.

 

 

?| 1st verse variation|

| A C A | A D A | A C A | A C |

G|---------------|---------------|--------------|-----------------------|

D|-------------7-|-------------7-|------------7-|---------------7(delay)|

A|---------------|----------5----|--------------|------7-5--------------|

E|--5--55--58----|--5--55--5-----|-5--55--58----|-5--8-----8-5----------|

 

 

?| prechorus|

| A C |

G|---------------------------------------------|

D|---------------------------------------------|

A|---------------------------------------------|

E|--5--55-5-888888-----------------------------|

 

 

?| chorus|

| D C A G |

G|---------------------------------------------|

D|---------------------------------------------|

A|--5--5-3-------------------------------------|

E|----------5--5-3--3-3-3-3-(x amount of 3:s)--|

 

Very hard to say how many times each note, especially the last 3:s, are played.

Do what you feel like.

 

?| 2nd chorus|

| D C E D |

G|---------------------------------------------|

D|---------------------------------------------|

A|--5--5-3--7--7-5--5-5-5-5-(x amount of 5:s)--|

E|---------------------------------------------|

 

This is played the fourth time of the second chorus. The second time this

is played (2nd repetition of 2nd chorus) you could try finishing with a

single 7 (E on A-string)

 

 

?| post chorus|

| E D C A |

G|---------------------------------------------|

D|---------------------------------------------|

A|--7--7-7-5--5-5------------------------------|

E|----------------8--8--5--5-5-5---------------|

 

 

?| post chorus|

| E D C A |

G|---------------------------------------------|

D|---------------------------------------------|

A|--7--77-7-5--55-5----------------------------|

E|------------------8--88-5--55-5--------------|

 

Same notes but played a bit differently.

 

 

?| ending|

| E G A A |

G|---------------------------------------------|

D|--------555555-7--5--------------------------|

A|--777777-----------7-------------------------|

E|---------------------5-----------------------|

 

And then, the coolest part, played four times.

 

Last play the intro once with delay.

 

 

**Mondo Electric Bassio!**

 

 

 

Return to my QOTSA bass tabs page

The Tablature is Copyright its respective owners.

Sign Up For My Newsletter
Subscribe | Unsubscribe

Site Map | Disclaimer | Privacy Policy | Media Kit | Submissions/Corrections

Website © 2000-2014 mattsmusicpage.com. All rights reserved.

Legal & DMCA: Matt's Music Page has been providing lyrics and tabs in a legal way, paying royalties each year to a few organizations. Then, all lyrics and tabs were removed from the site. Now, there's a new owner to the site, which purchased it August 26, 2014, and he is in negotiation to obtain licensing from BMI at the moment. If you have a specific DMCA request -- please do not hesitate to contact me via the contact button on top. I will do my very best to keep this site fully legal.

Get our toolbar!

 

Hard Rock Pin Las Vegas 4th of july red white and blue guitar
$5.0
Hard Rock Pin Las Vegas 4th of july red white and blue guitar picture


Hard Rock Pin Hollywood Fl Bell Girl with dice luggage and guitar
$5.0
Hard Rock Pin Hollywood Fl Bell Girl with dice luggage and guitar picture


Hard Rock Pin Las Vegas King of Clubs Guitar rare only 3 lines of info on back
$5.0
Hard Rock Pin Las Vegas King of Clubs Guitar rare only 3 lines of info on back picture


Hard Rock Pin Edmonton guitar pin
$5.0
Hard Rock Pin Edmonton guitar pin picture


Lladro Guitar Boy #4614 - Beautiful Piece of Lladro
$109.0
Lladro Guitar Boy #4614 - Beautiful Piece of Lladro picture