Your One-Stop Source For
Music Lyrics
Bass and Guitar Tabs
and More...
Music Lyrics Bass and Guitar Tabs

 

The Tabs Are Below

Learn To Read Tab
Chords Handbook
Corrections & Additions
Get Official Tab
QOTSA tabs @ 911Tabs

Tabbed By: PeaRce

EADG

All the pieces are here without having to downtune like all the other tabs

hope this is right... should be.

 

VERSE

G-------------------------------------|

D--------------------5--6-------------|

A---------8h9p8----6------------------|

E--1-1---------------------1---3---4--|

 

G-------------------------------------------|

D---------------------------3--5--6--5--3---|

A---------8h9p8----6h7p6--------------------|

E--1-1--------------------------------------|

 

BRIDGE/CHORUS

G--------------------------| |------|

D--3--1--3--5--6--5--3--1--| a bunch then |--3~--|

A--------------------------| of times finally|------|

E--------------------------| |------|

 

CHORUS/OUTRO

G-------------------------|

D---------6--66---5---3---|

A-------------------------|

E--1--1-------------------| I WROTE CHORUS TWICE CUZ IM NOT SURE OF THE

SONG STRUCTURE, JUS FIT IT 2GETHER N ITS FINE.

 

 

Return to my QOTSA bass tabs page

The Tablature is Copyright its respective owners.

Sign Up For My Newsletter
Subscribe | Unsubscribe

Site Map | Disclaimer | Privacy Policy | Media Kit | Submissions/Corrections

Website © 2000-2014 mattsmusicpage.com. All rights reserved.

Legal & DMCA: Matt's Music Page has been providing lyrics and tabs in a legal way, paying royalties each year to a few organizations. Then, all lyrics and tabs were removed from the site. Now, there's a new owner to the site, which purchased it August 26, 2014, and he is in negotiation to obtain licensing from BMI at the moment. If you have a specific DMCA request -- please do not hesitate to contact me via the contact button on top. I will do my very best to keep this site fully legal.

Get our toolbar!