Your One-Stop Source For
Music Lyrics
Bass and Guitar Tabs
and More...
Music Lyrics Bass and Guitar Tabs

 

The Guitar Tabs Are Below

Learn To Read Tab
Chords Handbook
Corrections & Additions
Get Official Tab
QOTSA tabs @ 911Tabs

BATTERY ACID - Queens of the Stone Age

-------------------------------------------------------------------------------

Tabbed by:Luis Gustavo Hernández Collado

Email:ltavo_87@hotmail.com

 

Tuning:CFBbEbGC

 

Still needs some corrections...

 

Intro

Part 1

Guitar 1

C |-----|

G |-----|

Eb|-6b*-|X5

Bb|-----|

F |-----|

C |-----|

b=bending

*=tremolo (slightly)

 

Guitar 2

C |---------|

G |---------|

Eb|---------|X4

Bb|-56-67-3-|

F |-34-45-1-|

C |---------|

 

Part 2

Guitar 1 & Guitar 2

C |----------|

G |----------|

Eb|-6-6-6767-|X4

Bb|-6-6-6767-|

F |-4-4-4545-|

C |----------|

 

Verse

Part 1

(Make you into dark...)

Guitar 1 & Guitar 2

C |----------|

G |----------|

Eb|-6-6-6767-|X12

Bb|-6-6-6767-|

F |-4-4-4545-|

C |----------|

 

C |-------------------|

G |-------------------|

Eb|-------------------|X4

Bb|-6-6-6-6-6767-(10)-|

F |-6-6-6-6-6767-(10)-|

C |-4-4-4-4-4545--8---|

 

C |----------|

G |----------|

Eb|-6-6-6767-|X12

Bb|-6-6-6767-|

F |-4-4-4545-|

C |----------|

 

C |-------------------|

G |-------------------|

Eb|-------------------|X4

Bb|-6-6-6-6-6767-(10)-|

F |-6-6-6-6-6767-(10)-|

C |-4-4-4-4-4545--8---|

 

Part 2

Guitar 1

C |----------|

G |----------|

Eb|-6-6-6767-|X4

Bb|-6-6-6767-|

F |-4-4-4545-|

C |----------|

 

Guitar 2 (w/flanger(?) effect)

C |-9--9--9-10-9-10-|

G |-----------------|

Eb|-----------------|X4

Bb|-----------------|

F |-----------------|

C |-----------------|

 

Chorus 1 X4

(There is nothing you can say...)

Guitar 1

C |------------------|

G |------------------|

Eb|-----7b*----7-6b*-|

Bb|----6----(6)------|

F |-(5)--------------|

C |------------------|

b=bending

*=tremolo (slighlty)

 

Guitar 1 & Guitar 2

C |----------|

G |----------|

Eb|-6-6-6767-|X2

Bb|-6-6-6767-|

F |-4-4-4545-|

C |----------|

 

Interlude

(Battery acid, battery acid..)

Guitar 1

C |------------------------------------------------------------------------|

G |-535-7b-6b-535-8b-7b-535-7b-6b-535-8b-7b-9-7-9b-9-7-9b-979b979b979b979b-|

Eb|------------------------------------------------------------------------|

Bb|------------------------------------------------------------------------|

F |------------------------------------------------------------------------|

C |------------------------------------------------------------------------|

 

Guitar 2

C |----------|

G |----------|

Eb|-6-6-6767-|X12

Bb|-6-6-6767-|

F |-4-4-4545-|

C |----------|

 

C |-------------------|

G |-------------------|

Eb|-------------------|X4

Bb|-6-6-6-6-6767-(10)-|

F |-6-6-6-6-6767-(10)-|

C |-4-4-4-4-4545--8---|

 

Verse 2

Part 1

(Battery acid in my veins...)

Guitar 1 & Guitar 2

C |----------|

G |----------|

Eb|-6-6-6767-|X12

Bb|-6-6-6767-|

F |-4-4-4545-|

C |----------|

 

C |-------------------|

G |-------------------|

Eb|-------------------|X4

Bb|-6-6-6-6-6767-(10)-|

F |-6-6-6-6-6767-(10)-|

C |-4-4-4-4-4545--8---|

 

Part 2

Guitar 1

C |---------------------------------|

G |-7*r-5*r-3*r-5*r-9*r-7*r-5*r-7*r-|

Eb|---------------------------------|X4

Bb|---------------------------------|

F |---------------------------------|

C |---------------------------------|

*= tremolo

r= let ring

 

Guitar 2

C |----------|

G |----------|

Eb|-6-6-6767-|X12

Bb|-6-6-6767-|

F |-4-4-4545-|

C |----------|

 

C |-------------------|

G |-------------------|

Eb|-------------------|X4

Bb|-6-6-6-6-6767-(10)-|

F |-6-6-6-6-6767-(10)-|

C |-4-4-4-4-4545--8---|

 

Chorus 2 X4

(There is nothing you can say...)

Guitar 1

C |------------------|

G |------------------|

Eb|-----7b*----7-6b*-|

Bb|----6----(6)------|

F |-(5)--------------|

C |------------------|

b=bending

*=tremolo (slighlty)

 

Guitar 1 & Guitar 2

C |----------|

G |----------|

Eb|-6-6-6767-|X2

Bb|-6-6-6767-|

F |-4-4-4545-|

C |----------|

 

Outro

(Battery acid, battery acid...)

Guitar 1 & Guitar 2

C |----------|

G |----------|

Eb|-6-6-6767-|X12

Bb|-6-6-6767-|

F |-4-4-4545-|

C |----------|

 

 

Return to my QOTSA Guitar Tabs page

The Tablature is Copyright its respective owners.

Sign Up For My Newsletter
Subscribe | Unsubscribe

Site Map | Disclaimer | Privacy Policy | Media Kit | Submissions/Corrections

Website © 2000-2014 mattsmusicpage.com. All rights reserved.

Legal & DMCA: Matt's Music Page has been providing lyrics and tabs in a legal way, paying royalties each year to a few organizations. Then, all lyrics and tabs were removed from the site. Now, there's a new owner to the site, which purchased it August 26, 2014, and he is in negotiation to obtain licensing from BMI at the moment. If you have a specific DMCA request -- please do not hesitate to contact me via the contact button on top. I will do my very best to keep this site fully legal.

Get our toolbar!