Your One-Stop Source For
Music Lyrics
Bass and Guitar Tabs
and More...
>Music Lyrics Bass and Guitar Tabs

 

The Tabs Are Below

Learn To Read Tab
Chords Handbook
Corrections & Additions
Get Official Tab
POM tabs @ 911Tabs

Author/Artist: Puddle of Mudd

Title: Out Of My Head

Album: Come Clean

Transcribed by: Wames Jebb

Email: jwebb@trecomnet.com

 

Here is another great song from PoM! Just listen to

the song to hear where the parts go. Its a blast to

play. As always it is tuned down a half step. You also

will need to tune to Drop-D. Any questions, comments,

or corrections would be greatly appreciated. ThAnKs!

 

-|----------------------------------------------------------------------------

-|----------------------------------------------------------------------------

-|----------------------------------------------------------------------------

-|------------------------------888---------------------888-------------------

-|--------------9-----9-----9---888-----9-----9-----9---888-------------------

-|-////-888-0-0---000---000---0-888-0-0---000---000---0-888-------------------

Intro/2nd Verse part/Etc.

 

-|----------------------------------------------------------------------------

-|------------------------------3---------------------------------------------

-|------------------------------2----------------5----------------------------

-|---------------10101010-888---0----------------5----------------------------

-|-----9-----9---10101010-888---0----------------3----------------------------

-|-0-0---000---0-10101010-888---0---------------------------------------------

What is wrong... know that I am...

 

-|------------------|---------------------------------------------------------

-|------------------|---------------------------------------------------------

-|------------------|----------7-----5----------------------------------------

-|-3----------------|----------7-----5----3-----------------------------------

-|-3----------------|----------5-----3----3-----------------------------------

-|-3----------------|---------------------3-----------------------------------

Unlike them... Chorus: Im so high Im never low

 

-|----------------------------------------------------------------------------

-|---------3------------------------------------------------------------------

-|--55-----2------------------------------------------------------------------

-|--55-33--0------------------------------------------------------------------

-|--33-33--0------------------------------------------------------------------

-|-----33--0------------------------------------------------------------------

Bridge (Go-o-o-o-OOO)

 

 

Return to my Puddle of Mudd tabs page

The Tablature is Copyright its respective owners.

Sign Up For My Newsletter
Subscribe | Unsubscribe

Site Map | Disclaimer | Privacy Policy | Media Kit | Submissions/Corrections

Website © 2000-2014 mattsmusicpage.com. All rights reserved.

Legal & DMCA: Matt's Music Page has been providing lyrics and tabs in a legal way, paying royalties each year to a few organizations. Then, all lyrics and tabs were removed from the site. Now, there's a new owner to the site, which purchased it August 26, 2014, and he is in negotiation to obtain licensing from BMI at the moment. If you have a specific DMCA request -- please do not hesitate to contact me via the contact button on top. I will do my very best to keep this site fully legal.

Get our toolbar!

 

VINTAGE SORRENTO MUSIC JEWELRY BOX
$45.0
VINTAGE SORRENTO MUSIC JEWELRY BOX picture


VINTAGE LACQUERED MUSIC BOX JAPAN
$25.99
VINTAGE LACQUERED MUSIC BOX JAPAN picture


Vintage Kehlsteinhaus Bavaria Germany Colorscope Cow Bell View Master Music Box
$8.99
Vintage Kehlsteinhaus Bavaria Germany Colorscope Cow Bell View Master Music Box picture


VINTAGE SCHMIDT Signed Collectible Musical Turning Clown
$9.99
VINTAGE  SCHMIDT Signed Collectible Musical Turning Clown picture


Vintage - Linen - Postcard - Stage - Radio City Music Hall - New York City
$3.75
Vintage - Linen - Postcard - Stage - Radio City Music Hall - New York City   picture