Your One-Stop Source For
Music Lyrics
Bass and Guitar Tabs
and More...
>Music Lyrics Bass and Guitar Tabs

 

The Tabs Are Below

Learn To Read Tab
Chords Handbook
Corrections & Additions
Get Official Tab
POM tabs @ 911Tabs

Author/Artist: Puddle of Mudd

Title: Drift & Die

Album: Come Clean

Transcribed by: Jim Sparham

Email: i_ate_my_arm@hotmail.com

 

I decided to try and transcribe this song plainly because no one else has. It's my first transcription so if there are any errors, report back to me. Remember to drop the E to a D.

 

E-|----------------------------------------------------------------------------

B-|-3---3-3-3-3---3---3--------------------------------------------------------

G-|-2---2-0-0-0---2---2--------------------------------------------------------

D-|----------------------------------------------------------------------------

A-|-------3-2------------------------------------------------------------------

D-|-0-0-0-----3-3-3-3-3/5-5-5--------------------------------------------------

Chorus (acoustic)

 

E-|----------------------------------------------------------------------------

B-|----------------------------------------------------------------------------

G-|----------------------------------------------------------------------------

D-|-121212-10-9-3333/55--------------------------------------------------------

A-|-121212-10-9-3333/55--------------------------------------------------------

D-|-121212-10-9-3333/55--------------------------------------------------------

Chorus (electric)

 

 

E-|----------------------------------------------------------------------------

B-|----------------------------------------------------------------------------

G-|----------------------------------------------------------------------------

D-|-1212-10-12--1515h17\12--1515h17\121212-10-9-33333/555--------------------

A-|-1212-10-12--1515h17\12--1515h17\121212-10-9-33333/555--------------------

D-|-1212-10-12--1515h17\12--1515h17\121212-10-9-33333/555--------------------

After the second chorus (electric)

 

 

Return to my Puddle of Mudd tabs page

The Tablature is Copyright its respective owners.

Sign Up For My Newsletter
Subscribe | Unsubscribe

Site Map | Disclaimer | Privacy Policy | Media Kit | Submissions/Corrections

Website © 2000-2014 mattsmusicpage.com. All rights reserved.

Legal & DMCA: Matt's Music Page has been providing lyrics and tabs in a legal way, paying royalties each year to a few organizations. Then, all lyrics and tabs were removed from the site. Now, there's a new owner to the site, which purchased it August 26, 2014, and he is in negotiation to obtain licensing from BMI at the moment. If you have a specific DMCA request -- please do not hesitate to contact me via the contact button on top. I will do my very best to keep this site fully legal.

Get our toolbar!

 


Hazbin Hotel Trading Card - CHOOSE YOUR CARDS NON-FOIL - BUY MORE AND SAVE
$
Hazbin Hotel Trading Card - CHOOSE YOUR CARDS NON-FOIL - BUY MORE AND SAVE picture


HARD ROCK PARK MYRTLE BEACH GUITAR PIN
$
HARD ROCK PARK MYRTLE BEACH GUITAR PIN picture


Barack Obama “playing his guitar” Mini Bobblehead
$
Barack Obama “playing his guitar” Mini Bobblehead picture


1987 Precious Moments "Hallelujah Country" #105821 Guitar Cowboy Fence w/ Box
$
1987 Precious Moments


Funko Pop Vinyl: Stranger Things - Eddie with Guitar
$
Funko Pop Vinyl: Stranger Things - Eddie with Guitar picture


Heineken Guitar Neon Sign Replacement Tube - Tuning Pegs Tube Only - NEW
$
Heineken Guitar Neon Sign Replacement Tube - Tuning Pegs Tube Only - NEW picture


Funko POP Rocks: Slipknot - Mick Thomson with Guitar Figure #299
$
Funko POP Rocks: Slipknot - Mick Thomson with Guitar Figure #299 picture


GHS Boomers Guitar Strings Zakk Wylde 2003 Print Ad Original Vintage 03-1
$
GHS  Boomers Guitar Strings Zakk Wylde 2003 Print Ad Original Vintage 03-1 picture


McDonald's Peakfest 09 Guitar Shape Key Chain
$
McDonald's Peakfest 09 Guitar Shape Key Chain picture


Cheech and Chong Signed/Autographed Full Size 39” Acoustic Guitar w/ JSA COA🎸
$
Cheech and Chong Signed/Autographed Full Size 39” Acoustic Guitar w/ JSA COA🎸 picture