Your One-Stop Source For
Music Lyrics
Bass and Guitar Tabs
and More...
Music Lyrics Bass and Guitar Tabs

 

The Tabs Are Below

Learn To Read Tab
Chords Handbook
Corrections & Additions
Get Official Tab
POM tabs @ 911Tabs

 Author/Artist: PUDDLE OF MUDD

Title: CONTROL

Album: COME CLEAN

Transcribed by: Wames Jebb

Email: boomshua@hotmail.com

 

Here it is, CONTROL!!! Tune down a half step and then drop the D. Any info on the leads

would be greatly appreciated. PoM ROCKS!!!

 

-|-------------------------------|--------------------------------------------

-|-------------------------------|--------------------------------------------

-|---------------5-55-5----------|--------------------------------------------

-|-0-0-0333332-0-5-55-5-0-555553-|--------------------------------------------

-|-0-0-0333332-0-3-33-3-0-555553-|--------------------------------------------

-|-0-0-0333332-0--------0-555553-|--------------------------------------------

Intro/chorus

 

-|----------------------------------------------------------------------------

-|----------------------------------------------------------------------------

-|-5/77777-5/77777-10-10-10---------------------------------------------------

-|-5/77777-5/77777-10-10-10---------------------------------------------------

-|-3/55555-3/55555-8--8--8----------------------------------------------------

-|----------------------------------------------------------------------------

Bridge, Palm mute this part and remember to change with the dynamic

 

Return to my Puddle of Mudd tabs page

The Tablature is Copyright its respective owners.

Sign Up For My Newsletter
Subscribe | Unsubscribe

Site Map | Disclaimer | Privacy Policy | Media Kit | Submissions/Corrections

Website © 2000-2014 mattsmusicpage.com. All rights reserved.

Legal & DMCA: Matt's Music Page has been providing lyrics and tabs in a legal way, paying royalties each year to a few organizations. Then, all lyrics and tabs were removed from the site. Now, there's a new owner to the site, which purchased it August 26, 2014, and he is in negotiation to obtain licensing from BMI at the moment. If you have a specific DMCA request -- please do not hesitate to contact me via the contact button on top. I will do my very best to keep this site fully legal.

Get our toolbar!