Your One-Stop Source For
Music Lyrics
Bass and Guitar Tabs
and More...
Music Lyrics Bass and Guitar Tabs

 

The Tabs Are Below

Learn To Read Tab
Chords Handbook
Corrections & Additions
Get Official Tab
POM tabs @ 911Tabs

Band: Puddle of Mudd

Song: Out of my head

Album: Come Clean

Tuning: C# A D G

Tabber: Incustaindchair (M. Muche)

 

-----------------------------------------------------------------------------

 

Intro: Guitar only, wait until 0:13

 

Intro: (at 0:13)

 

G | ---------------------------- |

D | ---------------------------- |

A | ---------------------------- |

C# | -10-10-10-10-8-8-8---------- |

 

G | ---------------------------------- |

D | ---------------------------------- |

A | -------8-------8-------8---------- |

C# | -0---0---0-0-0---0-0-0---0-8-8-8-- | x 3

 

G | --------------------------------------- |

D | --------------------------------------- |

A | -------8-------8----------------------- |

C# | -0---0---0-0-0---0-10-10-10-10-8-8-8--- |

 

Verse: (at 0:28)

 

G | ----------------------------- |

D | ----------------------------- |

A | ---------------8h9-8-6-4----- |

C# | -0-------------------------7- |

 

G | ------------------------------- |

D | ------------------11-9--------- |

A | ---------------11-----11-8----- |

C# | -0---------------------------7- |

 

G | ----------------------------- |

D | ----------------------------- |

A | ---------------8h9-8-6-4----- |

C# | -0-------------------------7- |

 

G | --------------------------------------- |

D | --------------------------------------- |

A | --------------------------------------- |

C# | -0-------------10-10-10-10-8-8-8------- |

 

(at 0:42)

 

G | ---------------------------------- |

D | ---------------------------------- |

A | -------8-------8---8h9-8-6-4------ |

C# | -0---0---0-0-0---0-----------7-4-- |

 

G | ---------------------------------- |

D | ---------------------11-9--------- |

A | -------8-------8---11----11-8----- |

C# | -0---0---0-0-0---0-----------7-4-- |

 

G | --------------------------------------------------------------- |

D | --------------------------------------------------------------- |

A | -------8-------8--8h9-8-6-4-----2--2-2-2-2-2-2--0--0-0-0-0--2-- |

C# | -0---0---0-0-0---0----------7-5-------------------------------- |

 

Chorus: (at 0:55)

 

G | ----------------------------------------------------------------- |

D | --------------------------3-6-4---------------------------------- |

A | --------------------------------4-2--2-2-2-2-2-2------------2--2- |

C# | -0--0-0-0-0-0-0-0-0-0-0-0------------------------3--3-3-3-3------ |

 

G | --------------------------------------------------------------------- |

D | --------------------------3-6-4-------------------------------------- |

A | --------------------------------4-2--2-2-2-2-2-2------------0-0-0---- |

C# | -0--0-0-0-0-0-0-0-0-0-0-0------------------------3--3-3-3-3-------0-- |

 

-----------------------------------------------------------------------------

Bridge

Wait 2 riffs until 1:15

At 1:15

 

G | --------- |

D | --------- |

A | --------- |

C# | --8-8-8-- |

 

G | ---------------------------------- |

D | ---------------------------------- |

A | -------8-------8-------8---------- |

C# | -0---0---0-0-0---0-0-0---0-8-8-8-- |

 

G | --------------------------------------- |

D | --------------------------------------- |

A | -------8-------8----------------------- |

C# | -0---0---0-0-0---0-10-10-10-10-8-8-8--- |

 

Verse 2: (at 1:23)

 

G | -------------------------------- |

D | -------------------------------- |

A | ------------------8h9-8-6-4----- |

C# | -0--0-0-0-0-0-0-0----------7-4-- |

 

G | ---------------------------------- |

D | ---------------------11-9--------- |

A | ------------------11-----11-8------|

C# | -0--0-0-0-0-0-0-0------------7-4-- |

 

G | ------------------10h11-10-8------ |

D | ----------------------------11---- |

A | ------------------------------11-8-|

C# | -0--0-0-0-0-0-0-0----------------- |

 

G | ------------------------------------- |

D | ------------------------------------- |

A | ------------------------------------- |

C# | -0--0-0-0-0-0-0-0--10-10-10-10-8-8-8--|

 

G | ------------------------------- |

D | ------------------------------- |

A | -----------------8h9-8-6-4----- |

C# | -0--0-0-0-0-0-0-0---------7-4-- |

 

G | --------------------------------- |

D | --------------------11-9--------- |

A | ------------------11----11-8------|

C# | -0--0-0-0-0-0-0-0-----------7-4-- |

 

G | ------------------10h11-10-8-------------------------------------- |

D | ----------------------------11------------------------------------ |

A | ------------------------------11-8-2--2-2-2-2-2-2--0--0-0-0-0--2-- |

C# | -0--0-0-0-0-0-0-0------------------------------------------------- |

 

Chorus 2: (at 1:50)

 

G | --------------------------------------------------------------- |

D | --------------------------3-6-4-------------------------------- |

A | -------------------------------4-2--2-2-2-2-2-2-----------2--2- |

C# | -0--0-0-0-0-0-0-0-0-0-0-0----------------------3--3-3-3-3------ | x 3

 

G | ---------------------------------------------------------------- |

D | --------------------------3-6-4--------------------------------- |

A | -------------------------------4-2--2-2-2-2-2-2----------------- |

C# | -0--0-0-0-0-0-0-0-0-0-0-0-----------------------3--3-3-3-3-3-3-- |

 

Bridge: (at 2:18)

 

G |------------------------------------------------------------------------------|

D |------------------------------------------------------------------------------|

A |-2-2-2----------4/6-4/8-8--2-2-2----------4/6-6/4-4--2-2-2----------4/6-4/8-8-|

C#|------3--3--0--0----------------3--3--0--0----------------3--3--0--0----------|

 

G | --------------------------- |

D | --------------------------- |

A | --2-2-2-------0--0--------- |

C# | --------3--3-------0------- |

 

-----------------------------------------------------------------------------

Bridge

Wait 2 riffs until 2:37

At 2:37

 

G | -------------------------------------------------------------------------- |

D | -------------------------------------------------------------------------- |

A | ----------------8-------8-------8---0-0-0--2--2-2-2-2-2-2--0--0-0-0-0--2-- |

C# | ---8-8-8--0---0---0-0-0---0-0-0---0--------------------------------------- |

 

Chorus 3: (at 2:44)

 

G | ------------------------------------------------------------------ |

D | --------------------------3-6-4----------------------------------- |

A | --------------------------------4-2--2-2-2-2-2-2-------------2--2- |

C# | -0--0-0-0-0-0-0-0-0-0-0-0-------------------------3--3-3-3-3------ | x 4

 

G | ----------------------------------------------------------------- |

D | ----------------------------------------------------------------- |

A | ----------------------------------2--2-2-2-2-2-2------------2--2- |

C# | -0--0-0-0-0-0-0-0-0-0-0-0-0-0-0-0----------------3--3-3-3-3------ |

 

G | ----------------------------------------------------------------- |

D | --------------------------3-6-4---------------------------------- |

A | --------------------------------4-2--2-2-2-2-2-2----------------- |

C# | -0--0-0-0-0-0-0-0-0-0-0-0------------------------3--3-3-3-3-3--3- |

 

Bridge: (at 3:25)

 

G | -------------------------------------------------------------------------------|

D | -------------------------------------------------------------------------------|

A | -2-2-2----------4/6-4/8-8--2-2-2----------4/6-6/4-4--2-2-2----------4/6-4/8-8--|

C#| ------3--3--0--0----------------3--3--0--0----------------3--3--0--0-----------|

 

Ending: (at 3:36)

 

G | ------------------------------------- |

D | ------------------------------------- |

A | --2-2-2------0--0------------0-0-0--- |

C# | --------3--3------0--0--3--3------0-- |

 

 

Return to my Puddle of Mudd bass tabs page

The Tablature is Copyright its respective owners.

Sign Up For My Newsletter
Subscribe | Unsubscribe

Site Map | Disclaimer | Privacy Policy | Media Kit | Submissions/Corrections

Website © 2000-2014 mattsmusicpage.com. All rights reserved.

Legal & DMCA: Matt's Music Page has been providing lyrics and tabs in a legal way, paying royalties each year to a few organizations. Then, all lyrics and tabs were removed from the site. Now, there's a new owner to the site, which purchased it August 26, 2014, and he is in negotiation to obtain licensing from BMI at the moment. If you have a specific DMCA request -- please do not hesitate to contact me via the contact button on top. I will do my very best to keep this site fully legal.

Get our toolbar!

 

VINTAGE SORRENTO MUSIC JEWELRY BOX
$45.0
VINTAGE SORRENTO MUSIC JEWELRY BOX picture


VINTAGE LACQUERED MUSIC BOX JAPAN
$25.99
VINTAGE LACQUERED MUSIC BOX JAPAN picture


Vintage Kehlsteinhaus Bavaria Germany Colorscope Cow Bell View Master Music Box
$8.99
Vintage Kehlsteinhaus Bavaria Germany Colorscope Cow Bell View Master Music Box picture


VINTAGE SCHMIDT Signed Collectible Musical Turning Clown
$9.99
VINTAGE  SCHMIDT Signed Collectible Musical Turning Clown picture


Vintage - Linen - Postcard - Stage - Radio City Music Hall - New York City
$3.75
Vintage - Linen - Postcard - Stage - Radio City Music Hall - New York City   picture