Your One-Stop Source For
Music Lyrics
Bass and Guitar Tabs
and More...
Music Lyrics Bass and Guitar Tabs

 

The Tabs Are Below

Learn To Read Tab
Chords Handbook
Corrections & Additions
Get Official Tab
POM tabs @ 911Tabs

Puddle of Mudd

"Drift and Die"

 

tab by Gary H.(reS) 8/14/02

 

Intro

 

REST x 2

 

[Play softly]

 

Gb|---||-----------------|-----------------|-----------------|-----------------||

Db|---||-----------------|-----------------|-----------------|-----------------||

Ab|---||-5~~~~~~~~~~-----|--~~~~~~~~~------|-023--3---2------|-023~\5-2~-------||

Db|-0-||-----------------|-----------------|-----------------|---------------0-||

 

Gb|-----------------|-----------------|-----------------|-----------------||

Db|-----------------|-----------------|-----------------|-----------------||

Ab|-5~~~~~~---------|-5~~~~~~---------|-023--3---2------|-023~\5-2~-------||

Db|-----------------|-----------------|-----------------|--------------10\||

 

Bridge [no chorus]

22

Gb|-----------------|-----------------|-----------------|-----------------||\ / 2 2

Db|-----------------|-----------------|-----------------|-----------------|| \/ 2

Ab|-5--------3-2----|-----------2h3-33|-5-------3--2----|-----------2h3-33|| /\ 2

Db|-----------------|-3---3-3-3-------|-----------------|-3---3-3-3-------||/ \ 2222

 

Verse

5555

Gb|-----------------|-----------------|-----------------|-----------------||\ / 5

Db|-----------------|-----------------|-----------------|-----------------|| \/ 555

Ab|-5-50-5---5-5-00-|-5-50-5---5-5--0-|-023-3--2--2-2---|-023~\5-2--2-2-00|| /\ 5

Db|-----------------|-----------------|-----------------|-----------------||/ \ 555

 

Bridge

22

Gb|-----------------|-----------------|-----------------|-----------------||\ / 2 2

Db|-----------------|-----------------|-----------------|-----------------|| \/ 2

Ab|-5--------3-2----|-----------2h3-33|-5-------3--2----|-----------2h3-33|| /\ 2

Db|-----------------|-3---3-3-3-------|-----------------|-3---3-3-3-------||/ \ 2222

 

 

Chorus [Louder]

22

Gb|-----------------|-----------------|-----------------|-----------------||\ / 2 2

Db|-----------------|-----------------|-----------------|-----------------|| \/ 2

Ab|-5---5-5--3-2----|-----------2h3-33|-5--5-5--3--2----|-----------2h3-33|| /\ 2

Db|-----------------|-3---3-3-3-------|-----------------|-3---3-3-3-------||/ \ 2222

 

Interlude

 

Gb|-----------------|-----------------|-----------------|-----------------||

Db|-----------------|-----------------|-----------------|-----------------||

Ab|-5--5-3-5--------|---3---------3---|-5-3---5-553-2---|-----------------||

Db|-------------3-3h|>5-----3-3h5-----|-----------------|-3-3-3-3-3/5-5-5-||

 

Gb|-----------------|-----------------|-----------------|-----------------||

Db|-----------------|-----------------|-----------------|-----------------||

Ab|-5--5-3-5--------|---3---------3---|-5-3---5-553-2---|-----------------||

Db|-------------3-3h|>5-----3-3h5-----|-----------------|-3---3-3-3-3-3-3-||

 

REST x 2

 

Final Chorus

{ 1, 2, 3 } 4 4

Gb|-----------------|-----------------|-----------------|-----------------||\ / 4 4

Db|-----------------|-----------------|-----------------|-----------------|| \/ 4444

Ab|-5---5-5--3-2----|-----------2h3-3-|-5--5-5--3--2----|-----------2h3-3-|| /\ 4

Db|-----------------|-3---3-3-3-------|-----------------|-3---3-3-3-------||/ \ 4

 

END: { 4 }

Gb|-----------------|

Db|-----------------|

Ab|----5---3--2-----|

Db|---------------3~|

 

 

Return to my Puddle of Mudd bass tabs page

The Tablature is Copyright its respective owners.

Sign Up For My Newsletter
Subscribe | Unsubscribe

Site Map | Disclaimer | Privacy Policy | Media Kit | Submissions/Corrections

Website © 2000-2014 mattsmusicpage.com. All rights reserved.

Legal & DMCA: Matt's Music Page has been providing lyrics and tabs in a legal way, paying royalties each year to a few organizations. Then, all lyrics and tabs were removed from the site. Now, there's a new owner to the site, which purchased it August 26, 2014, and he is in negotiation to obtain licensing from BMI at the moment. If you have a specific DMCA request -- please do not hesitate to contact me via the contact button on top. I will do my very best to keep this site fully legal.

Get our toolbar!

 

VINTAGE SORRENTO MUSIC JEWELRY BOX
$45.0
VINTAGE SORRENTO MUSIC JEWELRY BOX picture


VINTAGE LACQUERED MUSIC BOX JAPAN
$25.99
VINTAGE LACQUERED MUSIC BOX JAPAN picture


Vintage Kehlsteinhaus Bavaria Germany Colorscope Cow Bell View Master Music Box
$8.99
Vintage Kehlsteinhaus Bavaria Germany Colorscope Cow Bell View Master Music Box picture


VINTAGE SCHMIDT Signed Collectible Musical Turning Clown
$9.99
VINTAGE  SCHMIDT Signed Collectible Musical Turning Clown picture


Vintage - Linen - Postcard - Stage - Radio City Music Hall - New York City
$3.75
Vintage - Linen - Postcard - Stage - Radio City Music Hall - New York City   picture