Your One-Stop Source For
Music Lyrics
Bass and Guitar Tabs
and More...
Music Lyrics Bass and Guitar Tabs

 

The Tabs Are Below

Learn To Read Tab
Chords Handbook
Corrections & Additions
Get Official Tab
POM tabs @ 911Tabs

  Music X Tabs [http://www.mxtabs.net]

Band: Puddle Of Mudd

Song: Control

Tabber: Jimmy Fats 69

Tuning: Standard 5-String: B,E,A,D,G

 

This is a pretty easy song. Listen to the song for the timing. Please

comment!

 

Intro

G|---------------------------------------------------

D|---------------------------------------------------

A|---------------------------------------------------x4

E|--------------------------7--7-7-7--7--------------

B|2--2-2-2--2-5--5-5-5-5-4--------------7--7-7-7-7-5-

 

Verse 1(00:24)

G|------------------------------------------------------------

D|------------------------------------------------------------

A|------------------------------------------------------------x4

E|------------------------------7-7-7-7-7-7-7-----------------

B|2-2-2-2-2-2-2-5-5-5-5-5-5-4-4---------------7-7-7-7-7-7-5-5-

 

Chorus 1(00:47)

G|----------------------------------------------------------

D|----------------------------------------------------------

A|----------------------------------------------------------x4

E|-----------------------------7-7-7-7-7-7-7----------------

B|2-2-2-2-2-2-2-5-5-5-5-5-5-4----------------7-7-7-7-7-7-5--

 

Verse 2(1:10)

G|------------------------------------------------------------

D|------------------------------------------------------------

A|------------------------------------------------------------x4

E|------------------------------7-7-7-7-7-7-7-----------------

B|2-2-2-2-2-2-2-5-5-5-5-5-5-4-4---------------7-7-7-7-7-7-5-5-

 

Chorus 2 (1:34)

G|----------------------------------------------------------

D|----------------------------------------------------------

A|----------------------------------------------------------x4

E|-----------------------------7-7-7-7-7-7-7----------------

B|2-2-2-2-2-2-2-5-5-5-5-5-5-4----------------7-7-7-7-7-7-5--

 

Bridge Pt. 1 (1:57)

G|-----------------------------------------------------------------

D|-----------------------------------------------------------------

A|------------------16------------------16-------------------------x1

E|-----------------------------------------------------------------

B|2-------------------------------------------------------14-------

Listen for the timing at this part.

 

Rest for about 12 seconds

 

Bridge Pt. 2 (2:21)

G|------------------------------------------------------------------------

D|------------------------------------------------------------------------

A|------------------------------------------------------------------------x1

E|------------------------------------------------------------------------

B|0-2-----0-2---------0-2-----0-2---------0-2-----0-2---------0-2-----0-2-

 

G|------------------

D|------------------

A|------------------x8

E|------------------

B|0-2-2--0-2-2--2-5-

 

Chorus/Outro (2:56)

G|----------------------------------------------------------

D|----------------------------------------------------------

A|----------------------------------------------------------x8

E|-----------------------------7-7-7-7-7-7-7----------------

B|2-2-2-2-2-2-2-5-5-5-5-5-5-4----------------7-7-7-7-7-7-5--

 

 

Comments, Mistakes, Criticism: MADdog9997@aol.com

 

Return to my Puddle of Mudd bass tabs page

The Tablature is Copyright its respective owners.

Sign Up For My Newsletter
Subscribe | Unsubscribe

Site Map | Disclaimer | Privacy Policy | Media Kit | Submissions/Corrections

Website © 2000-2014 mattsmusicpage.com. All rights reserved.

Legal & DMCA: Matt's Music Page has been providing lyrics and tabs in a legal way, paying royalties each year to a few organizations. Then, all lyrics and tabs were removed from the site. Now, there's a new owner to the site, which purchased it August 26, 2014, and he is in negotiation to obtain licensing from BMI at the moment. If you have a specific DMCA request -- please do not hesitate to contact me via the contact button on top. I will do my very best to keep this site fully legal.

Get our toolbar!