Your One-Stop Source For
Music Lyrics
Bass and Guitar Tabs
and More...
>Music Lyrics Bass and Guitar Tabs

 

The Tabs Are Below

Learn To Read Tab
Chords Handbook
Corrections & Additions
Get Official Tab
POM tabs @ 911Tabs

Band: Puddle Of Mudd

Song: Cloud 9

CD: Life On Display

Publisher: Flawless Records, Interscope Records

 

Intro/Chorus

G|------|----------------------------|

D|------|---------------------777777-|

A|------|-9-6-66-9-6-66-9-6-66-------|

E|------|----------------------------|

 

Fill

G|-------------|

D|-------------|

A|---------3-0-|

E|-0-0-2-3-----|

 

Verse

G|--------------------------------------------------|

D|-----------4-3------4-3---------------333-1111111-|

A|-333333333-----3333-----33-2222222222-------------|

E|--------------------------------------------------|

 

G|-------------------------------------|

D|---------555---------555---------555-|

A|-5555555-----5555555-----55555555----|

E|-------------------------------------|

 

G|--------------------------------|

D|--------------------------------|

A|-7777777-9999999-11111111111111-|

E|--------------------------------|

 

Interlude

G|----------------------------|

D|----------------------------|

A|-----------3-0--------------|

E|-3-3-0-2-3-----2-2-0-1-2-0~-|

 

Note: Those are 11's, not 1's!

 

Tabbed by Jess (Aka norin)

 

 

Return to my Puddle of Mudd bass tabs page

The Tablature is Copyright its respective owners.

Sign Up For My Newsletter
Subscribe | Unsubscribe

Site Map | Disclaimer | Privacy Policy | Media Kit | Submissions/Corrections

Website © 2000-2014 mattsmusicpage.com. All rights reserved.

Legal & DMCA: Matt's Music Page has been providing lyrics and tabs in a legal way, paying royalties each year to a few organizations. Then, all lyrics and tabs were removed from the site. Now, there's a new owner to the site, which purchased it August 26, 2014, and he is in negotiation to obtain licensing from BMI at the moment. If you have a specific DMCA request -- please do not hesitate to contact me via the contact button on top. I will do my very best to keep this site fully legal.

Get our toolbar!

 

Whte Star Tours Sing-along Song Book..Lancaster, PA..65 Songs..Lyrics Only
$8.0
Whte Star Tours Sing-along Song Book..Lancaster, PA..65 Songs..Lyrics Only picture


Almost a hundred Vintage Lead Glass Lyric Medicine Bottle
$23.0
Almost a hundred Vintage Lead Glass Lyric Medicine Bottle  picture


OLD LARGE HISTORIC PHOTO OF MONROVIA CALIFORNIA, VIEW OF THE LYRIC THEATER c1930
$5.45
OLD LARGE HISTORIC PHOTO OF MONROVIA CALIFORNIA, VIEW OF THE LYRIC THEATER c1930 picture


BARBARA MANDRELL Lyrics Magazine Article Photo Clipping ~ MARRIED
$1.99
BARBARA MANDRELL Lyrics Magazine Article Photo Clipping ~ MARRIED picture


1987 Press Photo Members of Lyric Opera Cleveland doing Sweet Betsy from Pike
$9.99
1987 Press Photo Members of Lyric Opera Cleveland doing Sweet Betsy from Pike picture