Your One-Stop Source For
Music Lyrics
Bass and Guitar Tabs
and More...
Music Lyrics Bass and Guitar Tabs

 

The Tabs Are Below

Learn To Read Tab
Chords Handbook
Corrections & Additions
Get Official Tab
POM tabs @ 911Tabs

TUNE DOWN A HALF STEP

 

Intro

Gb----------------------------------------|

Db----------------------------------------|

Ab-0-0-000-3-33-33-33--7-7-777-6-66-5-55--|

Eb----------------------------------------|

 

Verse 1

Gb-------------------------------------|-------------------------------------|

Db-------------------------------------|-------------------------------------|

Ab-0000000/333333333-7777777-6666-5555-|-0000000/333333333-7777777-6666-5555-|

Eb-------------------------------------|-------------------------------------|

 

Gb-------------------------------------|-------------------|

Db-------------------------------------|-------------------|

Ab-0000000/333333333-7777777-6666-5555-|-0000000/333333333-|

Eb-------------------------------------|-------------------|

 

Prechorus

Gb-------------------|-------------------|-------------------|-------------------|

Db-------------------|-------------------|-------------------|-------------------|

Ab-7*--------6*----5*|-7*--------6*----5*|-7*----------------|-------------------|

Eb-------------------|-------------------|-------------------|-------------------|

 

Chorus 1

Gb----------------------------------|--------------------------------|

Db----------------------------------|--------------------------------|

Ab-66-666-555-3-3-0-0-000-----------|66-666-555-3-3------------------|

Eb------------------------0-00-000--|--------------------------------|

 

 

Chorus 2

Gb----------------------------------|--------------------------------|

Db----------------------------------|--------------------------------|

Ab-66-666-555-3-3-0-0-000-----------|66-666-555-3-3-0-0-000----------|

Eb------------------------0-00-000--|-----------------------0-00-000-|

 

Gb----------------------------------|---------------|

Db----------------------------------|---------------|

Ab-66-666-555-3-3-0-0-000-----------|66-666-555-3-3-|

Eb------------------------0-00-000--|---------------|

 

Bridge

Gb--------------------------|--------------------------|

Db-5-----------5------------|-5-----------5------------|

Ab--------------------------|--------------------------|

Eb-----5-3-5-3-----5-3-5-33-|-----5-3-5-3-----5-3-5-33-|

 

 

Easy part

Gb------------------------|------------------------|

Db------------------------|------------------------|

Ab-0-------3----7----6--5-|-0-------3----7----6--5-|

Eb------------------------|------------------------|

 

Gb------------------------|----------------------------------------|

Db------------------------|----------------------------------------|

Ab-0-------3----7----6--5-|-00000000-3333333333-77777777-6666-5555-|

Eb------------------------|----------------------------------------|

 

Gb----------------------------------------|----------------------------|

Db----------------------------------------|----------------------------|

Ab-00000000-3333333333-7*--------6*-5*----|----------------6*----5*----|

Eb-------------------------------------0*-|-------------------------0*-|

 

 

Outro

Gb----------------------------------|

Db----------------------------------|

Ab-5*-------------------------------|

Eb----------------------------------|

 

 

 

 

 

Listen to the song for the beat and speed

 

*let ring

 

Order:

 

Intro x2

Verse

Prechorus

Chorus 1

Intro

Verse

Prechorus

Chorus 2

Bridge x2

Easy Part

Chorus 2

Bridge x3

Outro

 

 

 

Return to my Puddle of Mudd bass tabs page

The Tablature is Copyright its respective owners.

Sign Up For My Newsletter
Subscribe | Unsubscribe

Site Map | Disclaimer | Privacy Policy | Media Kit | Submissions/Corrections

Website © 2000-2014 mattsmusicpage.com. All rights reserved.

Legal & DMCA: Matt's Music Page has been providing lyrics and tabs in a legal way, paying royalties each year to a few organizations. Then, all lyrics and tabs were removed from the site. Now, there's a new owner to the site, which purchased it August 26, 2014, and he is in negotiation to obtain licensing from BMI at the moment. If you have a specific DMCA request -- please do not hesitate to contact me via the contact button on top. I will do my very best to keep this site fully legal.

Get our toolbar!

 

Hard Rock Pin Las Vegas 4th of july red white and blue guitar
$5.0
Hard Rock Pin Las Vegas 4th of july red white and blue guitar picture


Hard Rock Pin Hollywood Fl Bell Girl with dice luggage and guitar
$5.0
Hard Rock Pin Hollywood Fl Bell Girl with dice luggage and guitar picture


Hard Rock Pin Las Vegas King of Clubs Guitar rare only 3 lines of info on back
$5.0
Hard Rock Pin Las Vegas King of Clubs Guitar rare only 3 lines of info on back picture


Hard Rock Pin Edmonton guitar pin
$5.0
Hard Rock Pin Edmonton guitar pin picture


Lladro Guitar Boy #4614 - Beautiful Piece of Lladro
$109.0
Lladro Guitar Boy #4614 - Beautiful Piece of Lladro picture