Your One-Stop Source For
Music Lyrics
Bass and Guitar Tabs
and More...
Music Lyrics Bass and Guitar Tabs

 

The Tabs Are Below

Learn To Read Tab
Chords Handbook
Corrections & Additions
Get Official Tab
Pearl Jam tabs @ 911Tabs

 

Author/Artist: Temple Of The Dog

Title: Wooden Jesus

Album: Temple Of The Dog

Transcribed by: Evan Cowan

Email: icowan@marin.k12.ca.us

(04/08/99)

 

-|----------|-0--------0----0----0--|--3--3----5--5----7--7----5--5--|--------

-|----------|-3-/-5----3----8----3--|--3--3----5--5----7--7----5--5--|--------

-|----------|-2-/-4----2----7----2--|--0--0----0--0----0--0----0--0--|--------

-|----------|-0--------0----0----0--|--0--0------------9--9----------|--------

-|----------|-----------------------|--------------------------------|--------

-|----------|-----------------------|--------------------------------|--------

Drum intro 4x With G2 3x

 

-|---------------------------------------|----------0-------|-----------------

-|-10--10----10--10----10--10----10--10--|------------------|-----------------

-|--9---9-----9---9-----9---9-----9---9--|------------------|-----------------

-|--x---x-----7---7-----9---9-----7---7--|------------------|-----------------

-|-10--10--------------------------------|--3---2---3---2---|-----------------

-|---------------------------------------|--1---0---1---0---|-----------------

G2 4x G1, G2 plays the open-E

 

-|------------------------0--|--------------|---------------------------------

-|-3--3--x-x--3-----------0--|-3--3--x-x--3-|---------------------------------

-|-5--5--x-x--5-----------0--|-5--5--x-x--5-|---------------------------------

-|-4--4--x-x--4-----------2--|-4--4--x-x--4-|---------------------------------

-|-5--5--x-x--5-----------2--|-5--5--x-x--5-|---------------------------------

-|---------------10\--0---0--|--------------|---------------------------------

Chorus 3x

 

-|-0--------0----0----0--|--3--3----5--5----7--7----5--5--|----------0-----|--

-|-3-/-5----3----8----3--|--3--3----5--5----7--7----5--5--|----------------|--

-|-2-/-4----2----7----2--|--0--0----0--0----0--0----0--0--|----------------|--

-|-0--------0----0----0--|--0--0------------9--9----------|----------------|--

-|-----------------------|--------------------------------|--3---2---3---2-|--

-|-----------------------|--------------------------------|--1---0---1---0-|--

2nd Verse 4x 3x

 

-|------------------------0--|--------------|---------|-----------------------

-|-3--3--x-x--3-----------0--|-3--3--x-x--3-|---------|-----------------------

-|-5--5--x-x--5-----------0--|-5--5--x-x--5-|---------|-----------------------

-|-4--4--x-x--4-----------2--|-4--4--x-x--4-|---------|-----------------------

-|-5--5--x-x--5-----------2--|-5--5--x-x--5-|---------|-----------------------

-|---------------10\--0---0--|--------------|-10\--0--|-----------------------

Chorus 3x

 

-|----0----------------------|--------------------------------------3-0-3-3-|-

-|----0---3--3--x-x--3-------|------------------------3-3---3-3-3-5---------|-

-|----0---5--5--x-x--5-------|-2b3-2b3r2-2b3r2-0-0-/4-----4-----------------|-

-|----2---4--4--x-x--4-------|----------------------------------------------|-

-|----2---5--5--x-x--5-------|----------------------------------------------|-

-|-0--0-----------------10\--|----------------------------------------------|-

Solo rhythm 4x Solo(w/wah)

 

-|-5b6---6--6r5-/----------12----------12----------------------------|--------

-|----------------------12----12-15b17----15p12----12----------------|--------

-|----------------14b16-------------------------14----14b15r14-12----|--------

-|----------------------------------------------------------------14-|--------

-|-------------------------------------------------------------------|--------

-|-------------------------------------------------------------------|--------

hold-----|

 

-|----------------12vvv-12-12-12-12-12---------------|------------------------

-|-------------------------------------15-12-15-12\--|------------------------

-|-12vvvvvvv-12\-------------------------------------|------------------------

-|---------------------------------------------------|------------------------

-|---------------------------------------------------|------------------------

-|---------------------------------------------------|------------------------

 

 

-|--------------------------------------12-12-12-12-12-12-\-|------------|----

-|--------------------------------------12-12-12-12-12-12-\-|------------|----

-|-14b15--15-15-15-15-15r14-12----12------------------------|------------|----

-|-----------------------------14----14---------------------|------------|----

-|----------------------------------------------------------|------------|----

-|----------------------------------------------------------|-0----10\---|----

hold-------- Verse 4x

 

-|-0--0---------------|-7--7-x-x--|-7-/-9-9-7-x-x-7-x-x-7-/-9-9-9-x-x-7-x-x-|-

-|-0--0--3--3--x-x--3-|-x--x-x-x--|-x-----x-x-x-x-x-x-x-x-----x-x-x-x-x-x-x-|-

-|-0--0--5--5--x-x--5-|-7--7-x-x--|-7-/-9-9-7-x-x-7-x-x-7-/-9-9-9-x-x-7-x-x-|-

-|-2--2--4--4--x-x--4-|-----------|-----------------------------------------|-

-|-2--2--5--5--x-x--5-|-----------|-----------------------------------------|-

-|-0--0---------------|-----------|-----------------------------------------|-

12x 8x

 

-|-7-/-9-9-7-x-x-7-7-7-9-9-9-9-9-9-9-9-9-9-x-7-|------------------------------

-|-x-----x-x-x-x-x-x-x-x-x-x-x-x-x-x-x-x-x-x-x-|------------------------------

-|-7-/-9-9-7-x-x-7-7-7-9-9-9-9-9-9-9-9-9-9-x-7-|------------------------------

-|---------------------------------------------|------------------------------

-|---------------------------------------------|------------------------------

-|---------------------------------------------|------------------------------

 

 

-|-15-15-15-15-x-x-15-15-15-x-x-15-x-15-x-15-15-15-15-15-15-15-15-15-|--------

-|-15-15-15-15-x-x-15-15-15-x-x-15-x-15-x-15-15-15-15-15-15-15-15-15-|--------

-|-------------------------------------------------------------------|--------

-|-------------------------------------------------------------------|--------

-|-------------------------------------------------------------------|--------

-|-------------------------------------------------------------------|--------

fade out

 

 

Return to my to my Pearl Jam tabs page

The Tablature is Copyright its respective owners.

Sign Up For My Newsletter
Subscribe | Unsubscribe

Site Map | Disclaimer | Privacy Policy | Media Kit | Submissions/Corrections

Website © 2000-2014 mattsmusicpage.com. All rights reserved.

Legal & DMCA: Matt's Music Page has been providing lyrics and tabs in a legal way, paying royalties each year to a few organizations. Then, all lyrics and tabs were removed from the site. Now, there's a new owner to the site, which purchased it August 26, 2014, and he is in negotiation to obtain licensing from BMI at the moment. If you have a specific DMCA request -- please do not hesitate to contact me via the contact button on top. I will do my very best to keep this site fully legal.

Get our toolbar!

 

1939 LYRIC THEATRE New York PHOTO
$5.83
1939 LYRIC THEATRE New York PHOTO picture


Star Spangled Banner or Marines Hymn lyrics signed by WWII Charles W. Lindberg
$10.0
Star Spangled Banner or Marines Hymn lyrics signed by WWII Charles W. Lindberg picture


OLD LARGE HISTORIC PHOTO OF THE LYRIC THEATRE, SYDNEY c1930s, WAR BONDS BOOTH
$7.42
OLD LARGE HISTORIC PHOTO OF THE LYRIC THEATRE, SYDNEY c1930s, WAR BONDS BOOTH picture


SONG OF REVOLUTION CARD SET WITH 13 MOST FAVORED COMMUNIST SONGS LYRICS + NOTES
$24.99
SONG OF REVOLUTION CARD SET WITH 13 MOST FAVORED COMMUNIST SONGS LYRICS + NOTES picture


OLD LARGE HISTORIC PHOTO OF THE LYRIC THEATRE, SYDNEY c1930s, WAR LOANS BOOTH
$7.42
OLD LARGE HISTORIC PHOTO OF THE LYRIC THEATRE, SYDNEY c1930s, WAR LOANS BOOTH picture