Your One-Stop Source For
Music Lyrics
Bass and Guitar Tabs
and More...
Music Lyrics Bass and Guitar Tabs

 

The Tabs Are Below

Learn To Read Tab
Chords Handbook
Corrections & Additions
Get Official Tab
Pearl Jam tabs @ 911Tabs

 

Author/Artist: Pearl Jam

Title: Why Go

Album: Yen

Transcribed by: Evan Cowan

Email: icowan@marin.k12.ca.us

 

The ten songbook actually got pretty close on this one!

 

-|---------|---------------|----------------|-----------------------|---------

-|---------|---------------|----------------|-19---19-19---19-19-19-|---------

-|-9-----9-|-13--13-13--13-|-14---14-14--14-|-19---19-19---19-19-19-|---------

-|-9-----9-|-12--12-12--12-|-12---12-12--12-|-19---19-19---19-19-19-|---------

-|-7-----7-|---------------|----------------|-----------------------|---------

-|---------|---------------|----------------|-----------------------|---------

Intro, G1

 

-|-x-x-\-------------x-\----------------|-------------------------------------

-|---x-\-x-\---------x-\-x-\----------/-|-------------------------------------

-|-------x-\-x-\---------x-\-\------/-/-|-------------------------------------

-|-----------x-\-x-----------\--x-/-/---|-------------------------------------

-|---------------x--------------x-/-----|-------------------------------------

-|--------------------------------------|-------------------------------------

Major pick scraping

 

-|----------------|--------------------------------|------------------------|-

-|----------------|--------------------------------|------------------------|-

-|-9--9--9--9-9-9-|-13-13-13--13-13-13-13-13-13-13-|-14-14-14-14-14-14-14-14|-

-|-9--9--9--9-9-9-|-12-12-12--12-12-12-12-12-12-12-|-12-12-12-12-12-12-12-12|-

-|-7--7--7--7-7-7-|--------------------------------|------------------------|-

-|----------------|--------------------------------|------------------------|-

Intro, G2

 

-|--------------------------------|---12-----12--12--12--|-12----------|------

-|-19-19-19-19-19-19-19-19--19-19-|-x-12--x--12--12--12--|-12----------|------

-|-19-19-19-19-19-19-19-19--19-19-|-x-12--x--12--12--12--|-12----------|------

-|-19-19-19-19-19-19-19-19--19-19-|---12-----12--12--12--|-12----------|------

-|-17-17-17-17-17-17-17-17--17-17-|----------------------|-------------|------

-|--------------------------------|----------------------|---------7\--|------

 

 

-|----------------------|-------------------------|---------------------------

-|----------------------|-------------------------|---------------------------

-|----------------------|-------------------------|---------------------------

-|----------------------|-------------------------|---------------------------

-|--------------------7-|-7----------5/7--/12--7\-|---------------------------

-|-0--0-5/7-0--0--0-7---|---7--10\5---------------|---------------------------

 

 

-|------------------------|------------------------|--------------------------

-|------------------------|------------------------|--------------------------

-|------------------------|------------------------|--------------------------

-|------------------------|------------------------|--------------------------

-|----------7-----------5-|----------7-----------5-|--------------------------

-|-0--0-5/7----0--0-5h7---|-0--0-5/7----0--0-5h7---|--------------------------

Verse, G1<---------------7x----------------------|

 

-|------------------------------|------------------------------|--------------

-|------------------------------|------------------------------|--------------

-|------------------------------|--------------------------7---|--------------

-|-9-9--9-9-9-9-9--9--9-9-9-9-9-|-7-7--7-7-7-7-7--7--7-7-9---9-|--------------

-|------------------------------|------------------------------|--------------

-|------------------------------|------------------------------|--------------

Verse, G2

 

-|-----------------------------|-----------------------------|----------------

-|-----------------------------|-----------------------------|----------------

-|-7-7--7--7-7-7--7--7-7-7-7-7-|-----------------------------|----------------

-|-----------------------------|-9-9--9--9-9-9--9--9-9-9-9-9-|----------------

-|-----------------------------|-----------------------------|----------------

-|-----------------------------|-----------------------------|----------------

 

 

-|------------------------------|------------------------------|--------------

-|------------------------------|------------------------------|--------------

-|------------------------------|--------------------------7---|--------------

-|-9-9--9-9-9-9-9--9--9-9-9-9-9-|-7-7--7-7-7-7-7--7--7-7-9---9-|--------------

-|------------------------------|------------------------------|--------------

-|------------------------------|------------------------------|--------------

 

 

-|-----------------------------|-----------------------------|----------------

-|-----------------------------|-----------------------------|----------------

-|-7-7--7--7-7-7--7--7-7-7-7-7-|-----------------------------|----------------

-|-----------------------------|-9-9--9--9-9-9--9--9-9-9-9-9-|----------------

-|-----------------------------|-----------------------------|----------------

-|-----------------------------|-----------------------------|----------------

 

 

-|------------------------|---------------------------|-----------------------

-|-9--x-x-x-x-9--x--7-9-7-|-9--x-x-x-x-9--x-x-x-x-9-7-|-----------------------

-|-7--x-x-x-x-7--x--7-7-7-|-7--x-x-x-x-7--x-x-x-x-7-7-|-----------------------

-|------------------------|---------------------------|-----------------------

-|------------------------|---------------------------|-----------------------

-|------------------------|---------------------------|-----------------------

 

 

-|------------------------|------------------------|--------------------------

-|-9--x-x-x-7-9--x--7-9-7-|-9--x-x-x-7-9--x--7-9-7-|--------------------------

-|-7--x-x-x-7-7--x--7-7-7-|-7--x-x-x-7-7--x--7-7-7-|--------------------------

-|------------------------|------------------------|--------------------------

-|------------------------|------------------------|--------------------------

-|------------------------|------------------------|--------------------------

 

 

-|---------------------------|----------------------|-------------------------

-|-9--x-x-x-x-9--x-x-x-x-9-7-|-9--9-9-9-9--9--9-9-9-|-------------------------

-|-7--x-x-x-x-7--x-x-x-x-7-7-|-7--7-7-7-7--7--7-7-7-|-------------------------

-|---------------------------|-9--9-9-9-9--9--9-9-9-|-------------------------

-|---------------------------|-7--7-7-7-7--7--7-7-7-|-------------------------

-|---------------------------|----------------------|-------------------------

2x 2x

 

-|------------------------|------------------------|------------------------|-

-|------------------------|------------------------|------------------------|-

-|------------------------|------------------------|------------------------|-

-|------------------------|------------------------|------------------------|-

-|----------------------5-|----------------------5-|----------------------5-|-

-|-0--0-5/7-0--0--0-5/7---|-0--0-5/7-0--0--0-5/7---|-0--0-5/7-0--0--0-5/7---|-

Pre-Chorus, G1 and G2

 

-|--------------------------------|------|---|---|---|------------------------

-|--------------------------------|------|---|---|---|------------------------

-|--------------------------------|----8-|---|---|---|------------------------

-|--------------------------------|------|---|---|---|------------------------

-|------------------------5-------|------|---|---|---|------------------------

-|-0--0-5/7-0--0-0--0-5/7---7-5\3-|-0--0-|---|---|---|------------------------

 

 

-|------------------------|------------------------|--------------------------

-|------------------------|------------------------|--------------------------

-|------------------------|------------------------|--------------------------

-|------------------------|------------------------|--------------------------

-|----------7-----------5-|----------7-----------5-|--------------------------

-|-0--0-5/7----0--0-5h7---|-0--0-5/7----0--0-5h7---|--------------------------

2nd Verse, G1<-----------4x----------------------|

 

-|---|---|---|-----------|---------------------------|------------------------

-|---|---|---|-9-------9-|-9--x-x-x-x-9--x-x-x-x-9-7-|------------------------

-|---|---|---|-7-------7-|-7--x-x-x-x-7--x-x-x-x-7-7-|------------------------

-|---|---|---|-9-------9-|---------------------------|------------------------

-|---|---|---|-----7vv---|---------------------------|------------------------

-|---|---|---|-----------|---------------------------|------------------------

2nd Verse, G2 2x

 

-|-----------------------|---------------------------|------------------------

-|-9--9-9-9-9--9--9-9--9-|-9--9-9-9-9--9--9-9--9-----|------------------------

-|-7--7-7-7-7--7--7-7--7-|-7--7-7-7-7--7--7-7--7-----|------------------------

-|-9--9-9-9-9--9--9-9--9-|-9--9-9-9-9--9--9-9--9-----|------------------------

-|-7--7-7-7-7--7--7-7--7-|-7--7-7-7-7--7--7-7--7-----|------------------------

-|-----------------------|---------------------------|------------------------

 

 

-|------------------------|------------------------|------------------------|-

-|------------------------|------------------------|------------------------|-

-|------------------------|------------------------|------------------------|-

-|------------------------|------------------------|------------------------|-

-|----------------------5-|----------------------5-|----------------------5-|-

-|-0--0-5/7-0--0--0-5/7---|-0--0-5/7-0--0--0-5/7---|-0--0-5/7-0--0--0-5/7---|-

Pre-Chorus, G1 + G2

 

-|--------------------------------|---------|---------------------------------

-|--------------------------------|---------|---------------------------------

-|--------------------------------|---------|---------------------------------

-|--------------------------------|---------|---------------------------------

-|------------------------5-------|-----10--|---------------------------------

-|-0--0-5/7-0--0-0--0-5/7---7-5\3-|-0---10--|---------------------------------

 

 

-|--0--0--0--0---0---0---0-|--0---0--0---0-----|--0----------|----------------

-|-17-17-17-17--17--15--12-|-12--12-12--10-----|-12----------|----------------

-|-------------------------|-------------------|-------------|----------------

-|-------------------------|-------------------|-------------|----------------

-|-------------------------|-------------------|-------------|----------------

-|-------------------------|-------------------|-------------|----------------

 

 

-|-7--7-7-7--7-7-7-7-7-7-7-|-3--3-3-2--2-2-2-2-2-2-2-|------------------------

-|-8--8-8-7--7-7-7-7-7-7-7-|-3--3-3-3--3-3-3-3-3-3-3-|------------------------

-|-9--9-9-7--7-7-7-7-7-7-7-|-0--0-0-2--2-2-2-2-2-2-2-|------------------------

-|-9--9-9-9--9-9-9-9-9-9-9-|-0--0-0-0--0-0-0-0-0-0-0-|------------------------

-|-7--7-7-9--9-9-9-9-9-9-9-|-2--2-2------------------|------------------------

-|--------7--7-7-7-7-7-7-7-|-3--3-3------------------|------------------------

Chorus, G1<---------------3x-----------------------|

 

-|-7--7-7------------------|----------|---------------------------------------

-|-8--8-8-5--5-5-5-5-5-5-5-|----------|---------------------------------------

-|-9--9-9-4--4-4-4-4-4-4-4-|----------|---------------------------------------

-|-9--9-9-5--5-5-5-5-5-5-5-|----------|---------------------------------------

-|-7--7-7-3--3-3-3-3-3-3-3-|-5--5-----|---------------------------------------

-|-------------------------|----------|---------------------------------------

 

 

-|------------|-------------|----------------|-----------------|--------------

-|------------|-------------|----------------|-----------------|--------------

-|------------|-------------|----------------|-----------------|--------------

-|------------|-------------|----------------|-----------------|--------------

-|-7--2---2/5-|--5--5-5-5/7-|-7--2--2-2--2/5-|-5--5--5-5--5--7-|--------------

-|------------|-------------|----------------|-----------------|--------------

Chorus, G2

 

-|-------------------------|--------------|----------------------|----------|-

-|-------------------------|--------------|----------------------|----------|-

-|-------------------------|--------------|----------------------|----------|-

-|-------------------------|--------------|----------------------|----------|-

-|-7--7--2-2-2-2-2-2-2-2-2-|-5--5-5-5-5/7-|-7---3--3-3-3-3-3-3-3-|-5--5--5/-|-

-|-------------------------|--------------|----------------------|----------|-

 

 

-|-----------------------------------------------------------------|----------

-|-15p12--12h15p12--12h15p12--12h15p12--12h15p12--12h15p12---12-12-|----------

-|------14--------14--------14--------14--------14--------14-------|----------

-|-----------------------------------------------------------------|----------

-|-----------------------------------------------------------------|----------

-|-----------------------------------------------------------------|----------

Solo Mike

 

-|-------------------------------12-14-|--------------------------------------

-|----12h15p12---12-15b17vvvvvvv-------|--------------------------------------

-|-14---------14-----------------------|--------------------------------------

-|-------------------------------------|--------------------------------------

-|-------------------------------------|--------------------------------------

-|-------------------------------------|--------------------------------------

 

 

-|-15--12h15p12----12--------12-------------------------------------|---------

-|--------------15----15b17-----15p12-------------------------------|---------

-|------------------------------------14-14b16r14p12-14-12----12-12-|---------

-|---------------------------------------------------------14-------|---------

-|------------------------------------------------------------------|---------

-|------------------------------------------------------------------|---------

 

 

-|-------------------------------------|--------------------------------------

-|-------------------------------------|--------------------------------------

-|-12b*--------------------------------|--------------------------------------

-|---------------14-14\-------------14-|--------------------------------------

-|------------------------14-----------|--------------------------------------

-|-------------------------------------|--------------------------------------

*Bend quarter note

 

-|----------------------------------------|-------------------|---------------

-|----------------------------------------|-------------------|---------------

-|----------------------------------------|-------------------|---------------

-|-12-12----------------------------------|-------------------|---------------

-|-------14-12-10-12b14r12b14r12b14r12b14-|-x-x-x12b14--x-x-x-|---------------

-|----------------------------------------|-------------------|---------------

w/ wah--hold-- --hold--

 

-|----------------------|-----------------------17b19vvvv-|-------------------

-|----------------------|---------------------------------|-------------------

-|-----7-9-7/9vvvv-9vvv-|-14----12------------------------|-------------------

-|-7/9------------------|----14----14-14--14/-------------|-------------------

-|----------------------|---------------------------------|-------------------

-|----------------------|---------------------------------|-------------------

--hold--

 

-|-*b19-19-19-19-|-19-19--17--17p15--------|----------------------------------

-|---------------|---------------------/17-|----------------------------------

-|---------------|-------------------------|----------------------------------

-|---------------|-------------------------|----------------------------------

-|---------------|-------------------------|----------------------------------

-|---------------|-------------------------|----------------------------------

*pre-bend on 17th fret

 

-|-15-------------------------------------------------------|-----------------

-|----17-15h17p15-------------------------------12-15-12-15-|-----------------

-|----------------15\14-12-14b*--12h14p12----12-------------|-----------------

-|----------------------------------------14----------------|-----------------

-|----------------------------------------------------------|-----------------

-|----------------------------------------------------------|-----------------

*bend 1/4

 

-|-----------12-------15-12h14p12----12h14p15----12-|-------------------------

-|-15b17vvvv----12-15-------------15----------15----|-------------------------

-|--------------------------------------------------|-------------------------

-|--------------------------------------------------|-------------------------

-|--------------------------------------------------|-------------------------

-|--------------------------------------------------|-------------------------

 

 

-|-14p12----12-----------12------------------------------------------|--------

-|-------15----15b17--------15p12------------------------------------|--------

-|--------------------------------14-14b16r14p12-14--14--12-14--14b*-|--------

-|-------------------------------------------------------------------|--------

-|-------------------------------------------------------------------|--------

-|-------------------------------------------------------------------|--------

* bend 1/4

 

-|--------------------x\------12-|--------------------------------------------

-|--------------------x\---------|--------------------------------------------

-|-14-12-------12vvvv------------|--------------------------------------------

-|-------14-14-------------------|--------------------------------------------

-|-------------------------------|--------------------------------------------

-|-------------------------------|--------------------------------------------

 

 

-|-15-12-12-15--12-----15-12-12-15-15-12-12-15-12-12-15-12-12----|------------

-|------------------------------------------------------------14-|------------

-|---------------------------------------------------------------|------------

-|---------------------------------------------------------------|------------

-|---------------------------------------------------------------|------------

-|---------------------------------------------------------------|------------

 

 

-|-17b19-17------17b19-------r17-|--------------------------------------------

-|-------------------------------|--------------------------------------------

-|-------------------------------|--------------------------------------------

-|-------------------------------|--------------------------------------------

-|-------------------------------|--------------------------------------------

-|-------------------------------|--------------------------------------------

 

 

-|-7--7-7-7--7-7-7-7-7-7-7-|-3--3-3-2--2-2-2-2-2-2-2-|------------------------

-|-8--8-8-7--7-7-7-7-7-7-7-|-3--3-3-3--3-3-3-3-3-3-3-|------------------------

-|-9--9-9-7--7-7-7-7-7-7-7-|-0--0-0-2--2-2-2-2-2-2-2-|------------------------

-|-9--9-9-9--9-9-9-9-9-9-9-|-0--0-0-0--0-0-0-0-0-0-0-|------------------------

-|-7--7-7-9--9-9-9-9-9-9-9-|-2--2-2------------------|------------------------

-|--------7--7-7-7-7-7-7-7-|-3--3-3------------------|------------------------

Outro, G1<----------------7x-----------------------|

 

-|-7--7-7------------------|------------|---------|--------|------------------

-|-8--8-8-5--5-5-5-5-5-5-5-|------------|---------|-x--8\--|------------------

-|-9--9-9-4--4-4-4-4-4-4-4-|------------|---------|-x--7\--|------------------

-|-9--9-9-5--5-5-5-5-5-5-5-|------------|---------|-x--6\--|------------------

-|-7--7-7-3--3-3-3-3-3-3-3-|-5--5vvvvvv-|-vvvvvvv-|-x--7\--|------------------

-|-------------------------|------------|---------|--------|------------------

End

 

-|-------------|----------------|---------------------------------------------

-|-------------|----------------|---------------------------------------------

-|-------------|----------------|---------------------------------------------

-|-------------|----------------|---------------------------------------------

-|-7---2---2/5-|---5--5--5--5/7-|---------------------------------------------

-|-------------|----------------|---------------------------------------------

Outro, G2<------7x------------|(improv on repeats)

 

-|---------------------|--------------|---------|-----------|-----------------

-|---------------------|--------------|---------|-8-----8---|-----------------

-|---------------------|--------------|---------|-7-----7---|-----------------

-|---------------------|--------------|---------|-6-----6---|-----------------

-|-7-------------------|--------------|---------|-7-----7---|-----------------

-|----8--8-8-8-8-8-8-8-|-10--10vvvvvv-|-vvvvvvv-|-0-----0---|-----------------

segue into 'black'

 

 

 

Return to my to my Pearl Jam tabs page

The Tablature is Copyright its respective owners.

Sign Up For My Newsletter
Subscribe | Unsubscribe

Site Map | Disclaimer | Privacy Policy | Media Kit | Submissions/Corrections

Website © 2000-2014 mattsmusicpage.com. All rights reserved.

Legal & DMCA: Matt's Music Page has been providing lyrics and tabs in a legal way, paying royalties each year to a few organizations. Then, all lyrics and tabs were removed from the site. Now, there's a new owner to the site, which purchased it August 26, 2014, and he is in negotiation to obtain licensing from BMI at the moment. If you have a specific DMCA request -- please do not hesitate to contact me via the contact button on top. I will do my very best to keep this site fully legal.

Get our toolbar!

 

1983 SEALED LP Return of the Jedi + 1977 Star Wars Vinyl 2 Record Set - Sci-Fi
$22.5
1983 SEALED LP Return of the Jedi + 1977 Star Wars Vinyl 2 Record Set - Sci-Fi picture


Frank Sinatra - Swingin Lovers & Sept of My Years (Reprise)[LP-Vinyl] RECORDS
$10.0
Frank Sinatra - Swingin Lovers & Sept of My Years (Reprise)[LP-Vinyl] RECORDS picture


Ion Audio Turntable & Vinyl Record Archiver with USB Connector TTUSB10 - EUC
$59.99
Ion Audio Turntable & Vinyl Record Archiver with USB Connector TTUSB10 - EUC picture


Vintage 1975 LP Big Rig Truckers LP Put the Hammer Down - Vinyl Record
$15.99
Vintage 1975 LP Big Rig Truckers LP Put the Hammer Down - Vinyl Record picture


1970`s Sanrio HELLO KITTY Vinyl Record STICKERS Vintage VERY RARE
$0.99
1970`s Sanrio HELLO KITTY Vinyl Record STICKERS Vintage VERY RARE picture