Your One-Stop Source For
Music Lyrics
Bass and Guitar Tabs
and More...
Music Lyrics Bass and Guitar Tabs

 

The Tabs Are Below

Learn To Read Tab
Chords Handbook
Corrections & Additions
Get Official Tab
Pearl Jam tabs @ 911Tabs

Author/Artist: Pearl Jam

Title: Hummous

Album: Yield

Transcribed by: Evan Cowan

Email: ecowan@uclink4.berkeley.edu

 

The guitars alternate lines, guitar 1 first line, guitar 2 second line,

and so forth...

I have tried to line up their parts as best as possible except during the solo

 

-|-5--7--8---7--5--4--/7--|------------------------|--------------------------

-|------------------------|------/6----------/6----|--------------------------

-|------------------------|-4p0------0--4p0------0-|--------------------------

-|------------------------|------------------------|--------------------------

-|------------------------|------------------------|--------------------------

-|------------------------|------------------------|--------------------------

Guitar 1 2x

 

-|------------------------|------------------------|--------------------------

-|------------------------|------------------------|--------------------------

-|-5--7--8---7--5--4--/7--|-4p0------0--4p0------0-|--------------------------

-|------------------------|------/6----------/6----|--------------------------

-|------------------------|------------------------|--------------------------

-|------------------------|------------------------|--------------------------

Guitar 2 2x

 

-|-5--7--8---7--5--/8--7--|------------------------|--------------------------

-|------------------------|------/6----------/6----|--------------------------

-|------------------------|-4p0------0--4p0------0-|--------------------------

-|------------------------|------------------------|--------------------------

-|------------------------|------------------------|--------------------------

-|------------------------|------------------------|--------------------------

Guitar 1

 

-|------------------------|------------------------|--------------------------

-|------------------------|------------------------|--------------------------

-|-5--7--8---7--5--/8--7--|-4p0------0--4p0------0-|--------------------------

-|------------------------|------/6----------/6----|--------------------------

-|------------------------|------------------------|--------------------------

-|------------------------|------------------------|--------------------------

Guitar 2

 

-|-5--7--8---7--5--/8--7--|--------------------------|------------------------

-|------------------------|------/6------------------|------------------------

-|------------------------|-4p0------0--7-5---7------|------------------------

-|------------------------|-----------------0---6/10-|------------------------

-|------------------------|--------------------------|------------------------

-|------------------------|--------------------------|------------------------

Guitar 1

 

-|------------------------|--------------------------|------------------------

-|------------------------|--------------------------|------------------------

-|-5--7--8---7--5--/8--7--|-4p0------0---------------|------------------------

-|------------------------|------/6-----3-1p0-3------|------------------------

-|------------------------|---------------------2/3--|------------------------

-|------------------------|--------------------------|------------------------

Guitar 2

 

-|-----------------------8-7--8-10-11-10-8-7----|-----------------------------

-|---------8--------8-9-------------------------|-----------------------------

-|----7-8----10--10--------------------------0--|-----------------------------

-|-10-------------------------------------------|-----------------------------

-|----------------------------------------------|-----------------------------

-|----------------------------------------------|-----------------------------

Guitar 1

 

-|----------------------------------------------|-----------------------------

-|-------------------------------3--4--3--------|-----------------------------

-|-----------------------5-4--5----------5-4----|-----------------------------

-|---------5--3---3-5-6-------------------------|-----------------------------

-|--3-5-6---------------------------------------|-----------------------------

-|-------------------------------------------3--|-----------------------------

Guitar 2

 

-|---------------------------8-7--8-10-11-10-8-7-|----------------------------

-|-------------8--------8-9----------------------|----------------------------

-|--------7-8----10--10--------------------------|----------------------------

-|-10--10----------------------------------------|----------------------------

-|-----------------------------------------------|----------------------------

-|-----------------------------------------------|----------------------------

Guitar 1

 

-|-----------------------------------------------|----------------------------

-|-----------------------------------3--4--3-----|----------------------------

-|---------------------------5-4--5----------5-4-|----------------------------

-|-------------5--3---3-5-6----------------------|----------------------------

-|--3---3-5-6------------------------------------|----------------------------

-|-----------------------------------------------|----------------------------

Guitar 2

 

-|-5--7--8---7--5--4--/7--|-------------------------|-------------------------

-|------------------------|------/6----------/6-----|-------------------------

-|------------------------|-4p0------0--4p0------0--|-------------------------

-|------------------------|-------------------------|-------------------------

-|------------------------|-------------------------|-------------------------

-|------------------------|-------------------------|-------------------------

Guitar 1 2x

 

-|------------------------|-------------------------|-------------------------

-|------------------------|-------------------------|-------------------------

-|-5--7--8---7--5--4--/7--|-4p0------0--4p0------0--|-------------------------

-|------------------------|------/6----------/6-----|-------------------------

-|------------------------|-------------------------|-------------------------

-|------------------------|-------------------------|-------------------------

Guitar 2 2x

 

-|-5--7--8---7--5--/8--7--|-------------------------|-------------------|-----

-|------------------------|------/6-----------------|-6-----------------|-----

-|------------------------|-4p0------0-7-5---7------|---0-7-5---7-------|-----

-|------------------------|----------------0---6/10-|---------0---6/10--|-----

-|------------------------|-------------------------|-------------------|-----

-|------------------------|-------------------------|-------------------|-----

Guitar 1

 

-|------------------------|-------------------------|-------------------|-----

-|------------------------|-------------------------|-------------------|-----

-|-5--7--8---7--5--/8--7--|-4p0------0--------------|-1-0---------------|-----

-|------------------------|------/6----3-1p0-3------|-----3-1p0-3-------|-----

-|------------------------|--------------------2/3--|-------------2/3---|-----

-|------------------------|-------------------------|-------------------|-----

Guitar 2

 

-|-----------------------8-7--8-10-11-10-8-7---|------------------------------

-|---------8--------8-9------------------------|------------------------------

-|----7-8----10--10--------------------------0-|------------------------------

-|-10------------------------------------------|------------------------------

-|---------------------------------------------|------------------------------

-|---------------------------------------------|------------------------------

Guitar 1

 

-|---------------------------------------------|------------------------------

-|-------------------------------3--4--3-------|------------------------------

-|-----------------------5-4--5----------5-4---|------------------------------

-|---------5--3---3-5-6------------------------|------------------------------

-|--3-5-6--------------------------------------|------------------------------

-|-------------------------------------------3-|------------------------------

Guitar 2

 

-|---------------------------8-7--8-10-11-10-8-7-|----------------------------

-|-------------8--------8-9----------------------|----------------------------

-|--------7-8----10--10--------------------------|----------------------------

-|-10--10----------------------------------------|----------------------------

-|-----------------------------------------------|----------------------------

-|-----------------------------------------------|----------------------------

Guitar 1

 

-|-----------------------------------------------|----------------------------

-|-----------------------------------3--4--3-----|----------------------------

-|---------------------------5-4--5----------5-4-|----------------------------

-|-------------5--3---3-5-6----------------------|----------------------------

-|--3---3-5-6------------------------------------|----------------------------

-|-----------------------------------------------|----------------------------

Guitar 2

 

-|-5--7--8---7--5--4--/7-|------------------------|---------------------------

-|-----------------------|------/6----------/6----|---------------------------

-|-----------------------|-4p0------0--4p0------0-|---------------------------

-|-----------------------|------------------------|---------------------------

-|-----------------------|------------------------|---------------------------

-|-----------------------|------------------------|---------------------------

Guitar 1 2x

 

-|-----------------------|------------------------|---------------------------

-|-----------------------|------------------------|---------------------------

-|-5--7--8---7--5--4--/7-|-4p0------0--4p0------0-|---------------------------

-|-----------------------|------/6----------/6----|---------------------------

-|-----------------------|------------------------|---------------------------

-|-----------------------|------------------------|---------------------------

Guitar 2 2x

 

-|-5--7--8--7--5--/8--7--|------------------------|---------------------------

-|-----------------------|------/6----------/6----|---------------------------

-|-----------------------|-4p0------0--4p0------0-|---------------------------

-|-----------------------|------------------------|---------------------------

-|-----------------------|------------------------|---------------------------

-|-----------------------|------------------------|---------------------------

Guitar 1

 

-|-----------------------|------------------------|---------------------------

-|-----------------------|------------------------|---------------------------

-|-5--7--8--7--5--/8--7--|-4p0------0--4p0------0-|---------------------------

-|-----------------------|------/6----------/6----|---------------------------

-|-----------------------|------------------------|---------------------------

-|-----------------------|------------------------|---------------------------

Guitar 2

 

-|-5--7--8---7--5--4--/7-|-------------------------|--------------------------

-|-----------------------|------/6-----------------|--------------------------

-|-----------------------|-4p0------0-7-5---7------|--------------------------

-|-----------------------|----------------0---6/10-|--------------------------

-|-----------------------|-------------------------|--------------------------

-|-----------------------|-------------------------|--------------------------

Guitar 1

 

-|-----------------------|-------------------------|--------------------------

-|-----------------------|-------------------------|--------------------------

-|-5--7--8---7--5--4--/7-|-4p0------0--------------|--------------------------

-|-----------------------|------/6----3-1p0-3------|--------------------------

-|-----------------------|--------------------2/3--|--------------------------

-|-----------------------|-------------------------|--------------------------

Guitar 2

 

-|--------------------|----------------------------------------|--------------

-|--------------------|----------------------------------------|--------------

-|--------------------|----------------------------------------|--------------

-|--------------------|----------------------------------------|--------------

-|-/10----/10----/10--|-/10--/10--/10--/10--/10--/10--/10--/10-|--------------

-|--------------------|----------------------------------------|--------------

Guitar 1 (under solo) |------------------3x------------------|

 

-|--------------------------|----------------------------|--------------------

-|--------------------------|----------------------------|--------------------

-|--------------------------|----------------------------|--------------------

-|-----5-4----4-3----3-2----|-------5-4----4-3----3-2----|--------------------

-|-5-6------5------4------3-|-3-5-6------5------4------3-|--------------------

-|--------------------------|----------------------------|--------------------

Guitar 2 (under solo) |------------6x------------|

 

-|-------------------------|--------------------------------------------------

-|-------------------------|--------------------------------------------------

-|-------------------------|--------------------------------------------------

-|-------5-4----4-3----3-2-|--------------------------------------------------

-|-3-5-6------5------4-----|--------------------------------------------------

-|-------------------------|--------------------------------------------------

Guitar 2

 

-|------------------------------------|-------------------------------------|-

-|-13-15-/16-15-13-/16-15-13\11-11/13-|-13-15-/16-15-13-/16-15-13--15-/16\15|-

-|------------------------------------|-------------------------------------|-

-|------------------------------------|-------------------------------------|-

-|------------------------------------|-------------------------------------|-

-|------------------------------------|-------------------------------------|-

Guitar 3-solo

 

-|----------------------------------------------------|-----------------------

-|-11/13--13-13-13\8--8-11-/13--11h13p11\8--11-/13-11-|-----------------------

-|----------------------------------------------------|-----------------------

-|----------------------------------------------------|-----------------------

-|----------------------------------------------------|-----------------------

-|----------------------------------------------------|-----------------------

 

 

-|------------------------------------------------|---------------------------

-|-13-15-16-15--16/18--16h18p16-15h16p15-13h15p13-|---------------------------

-|------------------------------------------------|---------------------------

-|------------------------------------------------|---------------------------

-|------------------------------------------------|---------------------------

-|------------------------------------------------|---------------------------

 

 

-|-------------------------------------------------|--------------------------

-|-15/16-15-16-15-16-18-16-18-16-15-16-15\13-15-13-|--------------------------

-|-------------------------------------------------|--------------------------

-|-------------------------------------------------|--------------------------

-|-------------------------------------------------|--------------------------

-|-------------------------------------------------|--------------------------

 

 

-|-------------------------------------------------|--------------------------

-|-13-13-13-13-13-13-13-13-13-13-13-13-13-13-13-15-|--------------------------

-|-------------------------------------------------|--------------------------

-|-------------------------------------------------|--------------------------

-|-------------------------------------------------|--------------------------

-|-------------------------------------------------|--------------------------

 

 

-|-------------------------|-------------------------|------------------------

-|-13-13-13-13-13-13-13-13-|-15-13-15-13-15-13-15-13-|------------------------

-|-------------------------|-------------------------|------------------------

-|-------------------------|-------------------------|------------------------

-|-------------------------|-------------------------|------------------------

-|-------------------------|-------------------------|------------------------

|----------4x-----------|

 

-|-------------------------|----------------------------------|---------------

-|-13-13-13-13-13-13-13-13-|-15-13-15-13-15-13-15-13-15/16-15-|---------------

-|-------------------------|----------------------------------|---------------

-|-------------------------|----------------------------------|---------------

-|-------------------------|----------------------------------|---------------

-|-------------------------|----------------------------------|---------------

|----------4x-----------|

 

-|-------------------------|----------------------------------|---------------

-|-15h16p15-15-15\13-13/15-|-15h16p15-13h15p13-11h13p11-13/15-|---------------

-|-------------------------|----------------------------------|---------------

-|-------------------------|----------------------------------|---------------

-|-------------------------|----------------------------------|---------------

-|-------------------------|----------------------------------|---------------

|----------------6x--------------|

 

-|-------------------------------------------|--------------------------------

-|-15h16p15-13h15p13-11h13p11-13/15-16-15-13-|--------------------------------

-|-------------------------------------------|--------------------------------

-|-------------------------------------------|--------------------------------

-|-------------------------------------------|--------------------------------

-|-------------------------------------------|--------------------------------

End

 

 

 

 

Return to my to my Pearl Jam tabs page

The Tablature is Copyright its respective owners.

Sign Up For My Newsletter
Subscribe | Unsubscribe

Site Map | Disclaimer | Privacy Policy | Media Kit | Submissions/Corrections

Website © 2000-2014 mattsmusicpage.com. All rights reserved.

Legal & DMCA: Matt's Music Page has been providing lyrics and tabs in a legal way, paying royalties each year to a few organizations. Then, all lyrics and tabs were removed from the site. Now, there's a new owner to the site, which purchased it August 26, 2014, and he is in negotiation to obtain licensing from BMI at the moment. If you have a specific DMCA request -- please do not hesitate to contact me via the contact button on top. I will do my very best to keep this site fully legal.

Get our toolbar!