Your One-Stop Source For
Music Lyrics
Bass and Guitar Tabs
and More...
Music Lyrics Bass and Guitar Tabs

 

The Tabs Are Below

Learn To Read Tab
Chords Handbook
Corrections & Additions
Get Official Tab
Pearl Jam tabs @ 911Tabs

 

Author/Artist: Pearl Jam

Title: Tremor Christ

Album: Vitalogy

Transcribed by: Chris Wilson , updated by Evan Cowan

Email: yokel@zip.com.au\ icowan@marin.k12.ca.us

 

Sounds a bit like the beatles.

On main riff, mute chords by releasing pressure on strings after each strum

However, stone lets the open high strings ring

 

-|--0--0-----0-----0--0--0--0-----0--------0--0----|--------------------------

-|--0--0-----0-----0--0--0--0-----0--------0--0----|--------------------------

-|-12-12-12-12-12-12-12-12-11-11-11-11-11-11-11-11-|--------------------------

-|-11-11-11-11-11-11-11-11-10-10-10-10-10-10-10-10-|--------------------------

-|-12-12-12-12-12-12-12-12-11-11-11-11-11-11-11-11-|--------------------------

-|-------------------------------------------------|--------------------------

Intro Stone 4x

 

-|-------------------------------------------------|--------------------------

-|-------------------------------------------------|--------------------------

-|-12-12-12-12-12-12-12-12-11-11-11-11-11-11-11-11-|--------------------------

-|-11-11-11-11-11-11-11-11-10-10-10-10-10-10-10-10-|--------------------------

-|-12-12-12-12-12-12-12-12-11-11-11-11-11-11-11-11-|--------------------------

-|-------------------------------------------------|--------------------------

Intro Mike, enter with bass on third time 2x

 

-|--0--0-----0-----0--0--0--0-----0--------0--0----|-------------|------------

-|--0--0-----0-----0--0--0--0-----0--------0--0----|-10-13-12vvv-|------------

-|-12-12-12-12-12-12-12-12-11-11-11-11-11-11-11-11-|-------------|------------

-|-11-11-11-11-11-11-11-11-10-10-10-10-10-10-10-10-|-------------|------------

-|-12-12-12-12-12-12-12-12-11-11-11-11-11-11-11-11-|-------------|------------

-|-------------------------------------------------|-------------|------------

Verse, Stone 7x Fill(on 4th + 6th time)

 

-|-------------------------------------------------|--------------------------

-|-------------------------------------------------|--------------------------

-|-12-12-12-12-12-12-12-12-11-11-11-11-11-11-11-11-|--------------------------

-|-11-11-11-11-11-11-11-11-10-10-10-10-10-10-10-10-|--------------------------

-|-12-12-12-12-12-12-12-12-11-11-11-11-11-11-11-11-|--------------------------

-|-------------------------------------------------|--------------------------

Verse, Mike 7x

 

-|-----0--0--0-----0-----0-----0--------|-------------------------------|-----

-|-----0--0--0-----0-----0-----0--------|-------------------------------|-----

-|-12-12-12-12-12-12-12-12-11-11--------|-12-12-12-12-12-12-12-12-11-11-|-----

-|-11-11-11-11-11-11-11-11-10-10--------|-11-11-11-11-11-11-11-11-10-10-|-----

-|-12-12-12-12-12-12-12-12-11-11--------|-12-12-12-12-12-12-12-12-11-11-|-----

-|--------------------------------------|-------------------------------|-----

End of Verse, Stone let ring End of Verse, Mike let ring

 

-|--------------------------------------------------------------------------|-

-|--------------------------------------------------------------------------|-

-|---6h8vvvv-*8--x-x-x-x-6h8vv---6h8--6-x-x-x-x-x-x-6h8vv--6h8---6--x-x-x-x-|-

-|--------------------------------------------------------------------------|-

-|--------------------------------------------------------------------------|-

-|--------------------------------------------------------------------------|-

Chorus,Stone *slight p.harm

 

-|---------------------------------------------|---------------------|--------

-|---------------------------------------------|---------------------|--------

-|-6h8vv---8b9r8--6h8vvv-6---x-x-x-x-6h8vvv--/-|--3-3-3-3-3-3-5------|--------

-|---------------------------------------------|--4-4-4-4-4-4-6--*6\-|--------

-|---------------------------------------------|--4-4-4-4-4-4-6------|--------

-|---------------------------------------------|--2-2-2-2-2-2-4------|--------

Mike 4x *bass plays

 

-|--------------------------------------------|-------------------------|-----

-|--------------------------------------------|-------------------------|-----

-|-------12------12-----------11------11------|-----12----12--------11--|-----

-|----11------11------11---10------10------10-|---11----11----11--10----|-----

-|-12------12------12---11------11------11----|-12----12----12--11------|-----

-|--------------------------------------------|-------------------------|-----

Post-Chorus,Stone(doubled by a 3rd guitar) 3x

 

-|-------------------------------------------------|-------------|--------|---

-|-------------------------------------------------|-------------|--------|---

-|-12-12-12-12-12-12-12-12-11-11-11-11-11-11-11-11-|-12-12-12-12-|-11-11--|---

-|-11-11-11-11-11-11-11-11-10-10-10-10-10-10-10-10-|-11-11-11-11-|-10-10--|---

-|-12-12-12-12-12-12-12-12-11-11-11-11-11-11-11-11-|-12-12-12-12-|-11-11--|---

-|-------------------------------------------------|-------------|--------|---

Post-Chorus, Mike 3x 2x

 

-|-------------------------------------------------|--------------------------

-|-------------------------------------------------|--------------------------

-|----------------------------------------------*--|--------------------------

-|----------------------------------------------10-|--------------------------

-|-12-12-12-12-12-12-12-12-11-11-11-11-11-11-11-11-|--------------------------

-|----------------------------------------------*--|--------------------------

2nd Verse, Stone don't mute chords w/*

 

-|-------------------------------------------------|--------------------------

-|-------------------------------------------------|--------------------------

-|-------------------*-----*-----------------*--*--|--------------------------

-|-------------------11----10----------------10-10-|--------------------------

-|-12-12-12-12-12-12-12-12-11-11-11-11-11-11-11-11-|--------------------------

-|-------------------*-----*-----------------*--*--|--------------------------

 

 

-|-------------------------------------------------|--------------------------

-|-------------------------------------------------|--------------------------

-|----------------*--*--*--------*--*--*--*--*--*--|--------------------------

-|----------------11-11-11-------10-10-10-10-10-10-|--------------------------

-|-12-12-12-12-12-12-12-12-11-11-11-11-11-11-11-11-|--------------------------

-|----------------*--*--*--------*--*--*--*--*--*--|--------------------------

 

 

-|--------------------------------------------------|-------------------------

-|--------------------------------------------------|-------------------------

-|-------*--*--*--*--*--*--*--*--*--*--*--*--*------|-------------------------

-|-------11-11-11-11-11-11-10-10-10-10-10-10-10-0-0-|-------------------------

-|-12-12-12-12-12-12-12-12-11-11-11-11-11-11-11-----|-------------------------

-|-------*--*--*--*--*--*--*--*--*--*--*--*--*------|-------------------------

 

 

-|-------------------------------------------------|--------------------------

-|-------------------------------------------------|--------------------------

-|-12-12-12-12-12-12-12-12-------------------------|--------------------------

-|-11-11-11-11-11-11-11-11-10-10-10-10-10-10-10-10-|--------------------------

-|-12-12-12-12-12-12-12-12-11-11-11-11-11-11-11-11-|--------------------------

-|-------------------------------------------------|--------------------------

2nd Verse, Mike

 

-|-------------------------------------------------|--------------------------

-|----------------------13----13-------------------|--------------------------

-|-----------------------------x-------------------|--------------------------

-|-11-11-11-11-11-11-11----10-10-10-10-10-10-10-10-|--------------------------

-|-12-12-12-12-12-12-12----11-11-11-11-11-11-11-11-|--------------------------

-|-------------------------------------------------|--------------------------

 

 

-|-------------------------------------------------|--------------------------

-|-------------------------------------------------|--------------------------

-|-------------------------------------------------|--------------------------

-|-11-11-11-11-11-11-11-11-10-10-10-10-10-10-10-10-|--------------------------

-|-12-12-12-12-12-12-12-12-11-11-11-11-11-11-11-11-|--------------------------

-|-------------------------------------------------|--------------------------

 

 

-|-------------------------------------------------|--------------------------

-|-------------------------------------------------|--------------------------

-|-------------------------------11-11-11-11-11-11-|--------------------------

-|-11-11-11-11-11-11-11-11-10-10-10-10-10-10-10-10-|--------------------------

-|-12-12-12-12-12-12-12-12-11-11-11-11-11-11-11-11-|--------------------------

-|-------------------------------------------------|--------------------------

 

 

-|------------------------------------------------------------------------|---

-|------------------------------------------------------------------------|---

-|--6h8vvv-6-x-x-x-x-x-x-6h8vv--x-x-x-x-6h8vv-6-x-x-x-x-x-x-6h8---x-x-x-x-|---

-|------------------------------------------------------------------------|---

-|------------------------------------------------------------------------|---

-|------------------------------------------------------------------------|---

Chorus Stone

 

-|--------------------------------------------------|---------------------|---

-|--------------------------------------------------|---------------------|---

-|-6h8--6-x-x-x-x-x-x-6h8vv---8b9r8-6h8---6-x-x-x-x-|--3-3-3-3-3-3-5------|---

-|--------------------------------------------------|--4-4-4-4-4-4-6--6\--|---

-|--------------------------------------------------|--4-4-4-4-4-4-6------|---

-|--------------------------------------------------|--2-2-2-2-2-2-4------|---

Mike 4x

 

-|-------------------------------------------------------------------------|--

-|-------------------------------------------------------------------------|--

-|-----12vvv----------11b12r11vv---------12b13r12vv---------11b12r11vv-8vv-|--

-|---11-------------10-----------------11-----------------10---------------|--

-|-12--------12\-/11------------11\-/12------------12\-/11-----------------|--

-|-------------------------------------------------------------------------|--

Post-Chorus, Stone

 

-|------------------------------------------------------------------------|---

-|------------------------------------------------------------------------|---

-|-----12b13r12vv---------11b12r11vv-8-11-----12b13r12vv---------11b12r11-|---

-|---11-----------------10------------------11-----------------10---------|---

-|-12------------12\-/11------------------12------------12\-/11-----------|---

-|------------------------------------------------------------------------|---

 

 

-|--0--0--0--0--0--0--0--0--0--0--0--0--0--0--0--0-|--------------------------

-|--0--0--0--0--0--0--0--0--0--0--0--0--0--0--0--0-|--------------------------

-|-12-12-12-12-12-12-12-12-11-11-11-11-11-11-11-11-|--------------------------

-|-11-11-11-11-11-11-11-11-10-10-10-10-10-10-10-10-|--------------------------

-|-12-12-12-12-12-12-12-12-11-11-11-11-11-11-11-11-|--------------------------

-|-------------------------------------------------|--------------------------

3x

 

-|--0--0--0--0--0--0--0--0--0-------|-----------------------------------------

-|--0--0--0--0--0--0--0--0--0-------|-----------------------------------------

-|-12-12-12-12-12-12-12-12-11-------|-----------------------------------------

-|-11-11-11-11-11-11-11-11-10-------|-----------------------------------------

-|-12-12-12-12-12-12-12-12-11-------|-----------------------------------------

-|----------------------------------|-----------------------------------------

let ring

 

-|-------------------------------------------------|--------------------------

-|-------------------------------------------------|--------------------------

-|-12-12-12-12-12-12-12-12-11-11-11-11-11-11-11-11-|--------------------------

-|-11-11-11-11-11-11-11-11-10-10-10-10-10-10-10-10-|--------------------------

-|-12-12-12-12-12-12-12-12-11-11-11-11-11-11-11-11-|--------------------------

-|-------------------------------------------------|--------------------------

Post-Chorus, Mike (7th time w/Wah) 7x

 

-|--------------------------------|-------------------------------------------

-|--------------------------------|-------------------------------------------

-|-12-12-12-12-12-12-12-12-11-----|-------------------------------------------

-|-11-11-11-11-11-11-11-11-10-----|-------------------------------------------

-|-12-12-12-12-12-12-12-12-11-----|-------------------------------------------

-|--------------------------------|-------------------------------------------

w/Wah

 

-|-------------------------------------------------------------------------|--

-|-------------------------------------------------------------------------|--

-|--6h8vvvv-6--x-x-x-x-6h8vv--x-*6h8--*6-x-x-x-x-x-x*6h8-*8b9r8vvv*6-x-x-x-|--

-|-------------------------------------------------------------------------|--

-|-------------------------------------------------------------------------|--

-|-------------------------------------------------------------------------|--

Chorus, Stone *p.harmonic

 

-|-------------------------------------------------------|-----------------|--

-|-------------------------------------------------------|-----------------|--

-|-6h8vv--6-x-x-x-x-x-x-6h8---x-x-x-x-6h8vvv--6h8--/-----|-----------------|--

-|---------------------------------------------------x\--|--4-4-4-4-4-4-6--|--

-|---------------------------------------------------x\--|--4-4-4-4-4-4-6--|--

-|-------------------------------------------------------|--2-2-2-2-2-2-4--|--

Mike x4 End

 

 

Return to my to my Pearl Jam tabs page

The Tablature is Copyright its respective owners.

Sign Up For My Newsletter
Subscribe | Unsubscribe

Site Map | Disclaimer | Privacy Policy | Media Kit | Submissions/Corrections

Website © 2000-2014 mattsmusicpage.com. All rights reserved.

Legal & DMCA: Matt's Music Page has been providing lyrics and tabs in a legal way, paying royalties each year to a few organizations. Then, all lyrics and tabs were removed from the site. Now, there's a new owner to the site, which purchased it August 26, 2014, and he is in negotiation to obtain licensing from BMI at the moment. If you have a specific DMCA request -- please do not hesitate to contact me via the contact button on top. I will do my very best to keep this site fully legal.

Get our toolbar!

 

1939 LYRIC THEATRE New York PHOTO
$5.83
1939 LYRIC THEATRE New York PHOTO picture


Star Spangled Banner or Marines Hymn lyrics signed by WWII Charles W. Lindberg
$10.0
Star Spangled Banner or Marines Hymn lyrics signed by WWII Charles W. Lindberg picture


OLD LARGE HISTORIC PHOTO OF THE LYRIC THEATRE, SYDNEY c1930s, WAR BONDS BOOTH
$7.42
OLD LARGE HISTORIC PHOTO OF THE LYRIC THEATRE, SYDNEY c1930s, WAR BONDS BOOTH picture


SONG OF REVOLUTION CARD SET WITH 13 MOST FAVORED COMMUNIST SONGS LYRICS + NOTES
$24.99
SONG OF REVOLUTION CARD SET WITH 13 MOST FAVORED COMMUNIST SONGS LYRICS + NOTES picture


OLD LARGE HISTORIC PHOTO OF THE LYRIC THEATRE, SYDNEY c1930s, WAR LOANS BOOTH
$7.42
OLD LARGE HISTORIC PHOTO OF THE LYRIC THEATRE, SYDNEY c1930s, WAR LOANS BOOTH picture