Your One-Stop Source For
Music Lyrics
Bass and Guitar Tabs
and More...
Music Lyrics Bass and Guitar Tabs

 

The Tabs Are Below

Learn To Read Tab
Chords Handbook
Corrections & Additions
Get Official Tab
Pearl Jam tabs @ 911Tabs

 

Author/Artist: Pearl Jam

Title: In My Tree

Album: No Code

Transcribed by: Evan Cowan

Email: icowan@marin.k12.ca.us

Updated 03/21/99

 

It's very important to get down the strumming in all of the riffs and mesh with the drum beat

 

-|-----------------------|------------------|---------------------------------

-|-----------------------|-0----------------|---------------------------------

-|-----------------------|-9----------------|---------------------------------

-|-----------------------|-9----------------|---------------------------------

-|-----------------------|------------------|---------------------------------

-|-----------------------|------------------|---------------------------------

Drum/Bass intro w/ delay/echo 2x

 

-|---------------------------------------------------|------------------------

-|---------------------------------------------------|------------------------

-|---------------------------------------------------|------------------------

-|-9--9--9-9--9-9--9-9-9-9--9--9--9-9--9-9--9-9-9-9--|------------------------

-|-7--7--7-7--7-7--7-7-7-7--6--6--6-6--6-6--6-6-6-6--|------------------------

-|-0--0--0-0--0-0--0-0-0-0--0--0--0-0--0-0--0-0-0-0--|------------------------

Verse, G1+G2

 

-|-----------------------------------------------------|----------------------

-|-----------------------------------------------------|----------------------

-|-9--9--9-9--9-9-9-9-9-9-9--9--9--9-9--9-9-9-9-9-9-9--|----------------------

-|-7--7--7-7--7-7-7-7-7-7-7--9--9--9-9--9-9-9-9-9-9-9--|----------------------

-|-0--0--0-0--0-0-0-0-0-0-0--0--0--0-0--0-0-0-0-0-0-0--|----------------------

-|-----------------------------------------------------|----------------------

 

 

-|---------------------------------------------------|------------------------

-|---------------------------------------------------|------------------------

-|---------------------------------------------------|------------------------

-|-9--9--9-9--9-9--9-9-9-9--9--9--9-9--9-9--9-9-9-9--|------------------------

-|-7--7--7-7--7-7--7-7-7-7--6--6--6-6--6-6--6-6-6-6--|------------------------

-|-0--0--0-0--0-0--0-0-0-0--0--0--0-0--0-0--0-0-0-0--|------------------------

 

 

-|-----------------------------------------------------|----------------------

-|---------------------------9--9--9-9--9-9-9-9-9-9-9--|----------------------

-|-9--9--9-9--9-9-9-9-9-9-9--9--9--9-9--9-9-9-9-9-9-9--|----------------------

-|-7--7--7-7--7-7-7-7-7-7-7--9--9--9-9--9-9-9-9-9-9-9--|----------------------

-|-0--0--0-0--0-0-0-0-0-0-0--0--0--0-0--0-0-0-0-0-0-0--|----------------------

-|-----------------------------------------------------|----------------------

 

 

-|---------------------------------------------------|------------------------

-|---------------------------------------------------|------------------------

-|---------------------------------------------------|------------------------

-|-9--9--9-9--9-9--9-9-9-9--9--9--9-9--9-9--9-9-9-9--|------------------------

-|-7--7--7-7--7-7--7-7-7-7--6--6--6-6--6-6--6-6-6-6--|------------------------

-|-0--0--0-0--0-0--0-0-0-0--0--0--0-0--0-0--0-0-0-0--|------------------------

 

 

-|-----------------------------------------------------|----------------------

-|-----------------------------------------------------|----------------------

-|-9--9--9-9--9-9-9-9-9-9-9--9--9--9-9--9-9-9-9-9-9-9--|----------------------

-|-7--7--7-7--7-7-7-7-7-7-7--9--9--9-9--9-9-9-9-9-9-9--|----------------------

-|-0--0--0-0--0-0-0-0-0-0-0--0--0--0-0--0-0-0-0-0-0-0--|----------------------

-|-----------------------------------------------------|----------------------

 

 

-|---------------------------------------------------|------------------------

-|---------------------------------------------------|------------------------

-|---------------------------------------------------|------------------------

-|-9--9--9-9--9-9--9-9-9-9--9--9--9-9--9-9--9-9-9-9--|------------------------

-|-7--7--7-7--7-7--7-7-7-7--6--6--6-6--6-6--6-6-6-6--|------------------------

-|-0--0--0-0--0-0--0-0-0-0--0--0--0-0--0-0--0-0-0-0--|------------------------

 

 

-|-----------------------------------------------------|----------------------

-|-----------------------------------------------------|----------------------

-|-9--9--9-9--9-9-9-9-9-9-9--9--9--9-9--9-9-9-9-9-9-9--|----------------------

-|-7--7--7-7--7-7-7-7-7-7-7--9--9--9-9--9-9-9-9-9-9-9--|----------------------

-|-0--0--0-0--0-0-0-0-0-0-0--0--0--0-0--0-0-0-0-0-0-0--|----------------------

-|-----------------------------------------------------|----------------------

 

 

-|-3----0----0----|-3----5------------------------------|-3--5-----|-----|----

-|-3----2----0----|-3----5------------------------------|-3--5-----|-----|----

-|-0----2----1----|-4----6------------------------------|-4--6-----|-----|----

-|-0----2----2----|-5----7----9--9--9-9--9-9-9-9-9-9-9--|-5--7--9--|-----|----

-|-2----0----2----|-5----7----7--7--7-7--7-7-7-7-7-7-7--|-5--7--7--|-----|----

-|-3---------0----|-3----5----0--0--0-0--0-0-0-0-0-0-0--|-3--5--0--|--0--|----

Chorus, G1 4x Chorus, G2+G3 3x

 

-|---------------------------------------|------------------------------------

-|---------------------------------------|------------------------------------

-|----10------------------10----------7--|------------------------------------

-|-9--10--10---9--7----9--10--10---9--7--|------------------------------------

-|-9---8--10---9--7----9---8--10---9--5--|------------------------------------

-|-7-------8---7--5----7-------8---7--5--|------------------------------------

Bridge, G1 2x

 

-|---------------------------------------------------|------------------------

-|---------------------------------------------------|------------------------

-|---------------------------------------------------|------------------------

-|-9--9--9-9--9-9--9-9-9-9--9--9--9-9--9-9--9-9-9-9--|------------------------

-|-7--7--7-7--7-7--7-7-7-7--6--6--6-6--6-6--6-6-6-6--|------------------------

-|-0--0--0-0--0-0--0-0-0-0--0--0--0-0--0-0--0-0-0-0--|------------------------

Verse, G1+G2

 

-|-----------------------------------------------------|----------------------

-|-9--9--9-9--9-9-9-9-9-9-9--9--9--9-9--9-9-9-9-9-9-9--|----------------------

-|-9--9--9-9--9-9-9-9-9-9-9--9--9--9-9--9-9-9-9-9-9-9--|----------------------

-|-7--7--7-7--7-7-7-7-7-7-7--9--9--9-9--9-9-9-9-9-9-9--|----------------------

-|-0--0--0-0--0-0-0-0-0-0-0--0--0--0-0--0-0-0-0-0-0-0--|----------------------

-|-----------------------------------------------------|----------------------

 

 

-|---------------------------------------------------|------------------------

-|---------------------------------------------------|------------------------

-|---------------------------------------------------|------------------------

-|-9--9--9-9--9-9--9-9-9-9--9--9--9-9--9-9--9-9-9-9--|------------------------

-|-7--7--7-7--7-7--7-7-7-7--6--6--6-6--6-6--6-6-6-6--|------------------------

-|-0--0--0-0--0-0--0-0-0-0--0--0--0-0--0-0--0-0-0-0--|------------------------

 

 

-|-----------------------------------------------------|----------------------

-|---------------------------9--9--9-9--9-9-9-9-9-9-9--|----------------------

-|-9--9--9-9--9-9-9-9-9-9-9--9--9--9-9--9-9-9-9-9-9-9--|----------------------

-|-7--7--7-7--7-7-7-7-7-7-7--9--9--9-9--9-9-9-9-9-9-9--|----------------------

-|-0--0--0-0--0-0-0-0-0-0-0--0--0--0-0--0-0-0-0-0-0-0--|----------------------

-|-----------------------------------------------------|----------------------

 

 

-|---------------------------------------------------|------------------------

-|---------------------------------------------------|------------------------

-|---------------------------------------------------|------------------------

-|-9--9--9-9--9-9--9-9-9-9--9--9--9-9--9-9--9-9-9-9--|------------------------

-|-7--7--7-7--7-7--7-7-7-7--6--6--6-6--6-6--6-6-6-6--|------------------------

-|-0--0--0-0--0-0--0-0-0-0--0--0--0-0--0-0--0-0-0-0--|------------------------

 

 

-|-----------------------------------------------------|----------------------

-|-----------------------------------------------------|----------------------

-|-9--9--9-9--9-9-9-9-9-9-9--9--9--9-9--9-9-9-9-9-9-9--|----------------------

-|-7--7--7-7--7-7-7-7-7-7-7--9--9--9-9--9-9-9-9-9-9-9--|----------------------

-|-0--0--0-0--0-0-0-0-0-0-0--0--0--0-0--0-0-0-0-0-0-0--|----------------------

-|-----------------------------------------------------|----------------------

 

 

-|---------------------------------------------------|------------------------

-|---------------------------------------------------|------------------------

-|---------------------------------------------------|------------------------

-|-9--9--9-9--9-9--9-9-9-9--9--9--9-9--9-9--9-9-9-9--|------------------------

-|-7--7--7-7--7-7--7-7-7-7--6--6--6-6--6-6--6-6-6-6--|------------------------

-|-0--0--0-0--0-0--0-0-0-0--0--0--0-0--0-0--0-0-0-0--|------------------------

 

 

-|-----------------------------------------------------|----------------------

-|-----------------------------------------------------|----------------------

-|-9--9--9-9--9-9-9-9-9-9-9--9--9--9-9--9-9-9-9-9-9-9--|----------------------

-|-7--7--7-7--7-7-7-7-7-7-7--9--9--9-9--9-9-9-9-9-9-9--|----------------------

-|-0--0--0-0--0-0-0-0-0-0-0--0--0--0-0--0-0-0-0-0-0-0--|----------------------

-|-----------------------------------------------------|----------------------

 

 

-|----|------------|-16-----14-----12-----14-16-----14-----12----17---12-14-|-

-|----|-15----14---|--------------------------------------------------------|-

-|----|------------|--------------------------------------------------------|-

-|----|------------|--------------------------------------------------------|-

-|----|------------|--------------------------------------------------------|-

-|----|------------|--------------------------------------------------------|-

Verse, G3

 

-|-16-----14-----12--|-3----0----0--------------|-3----0----0----3----0----0|-

-|-------------------|-3----2----0--------------|-3----2----0----3----2----0|-

-|-------------------|-0----2----1--------------|-0----2----1----0----2----1|-

-|-------------------|-0----2----2--------------|-0----2----2----0----2----2|-

-|-------------------|-2----0----2--------------|-2----0----2----2----0----2|-

-|-------------------|-3---------0--------------|-3---------0----3---------0|-

Chorus, G1 W/Fill 1 2x W / Fill 2

 

-|------------------|---------------------|-3----0----0-------------|---------

-|------------------|---------------------|-3----2----0-------------|---------

-|-12--11--9--7--9--|-12--11--9--7-----9--|-0----2----1-------------|---------

-|------------------|---------------9-----|-0----2----2-------------|---------

-|------------------|---------------------|-2----0----2-------------|---------

-|------------------|---------------------|-3---------0-------------|---------

Fill 1 (G3) Fill 2 (G3) G1 W/ Fill 1 2x

 

-|-3----0----0-----3----0----0--|-3----5------------------------------|-------

-|-3----2----0-----3----2----0--|-3----5------------------------------|-------

-|-0----2----1-----0----2----1--|-4----6------------------------------|-------

-|-0----2----2-----0----2----2--|-5----7----9--9--9-9--9-9-9-9-9-9-9--|-------

-|-2----0----2-----2----0----2--|-5----7----7--7--7-7--7-7-7-7-7-7-7--|-------

-|-3---------0-----3---------0--|-3----5----0--0--0-0--0-0-0-0-0-0-0--|-------

W/ Fill 2 Chorus, G2 8x

 

-|---3----0----|--3----5----|------------------|------------------------------

-|---3----2----|--3----5----|------------------|------------------------------

-|---0----2----|--4----6----|-12--11--9--7-----|------------------------------

-|---0----2----|--5----7----|---------------9--|------------------------------

-|---2----0----|--5----7----|------------------|------------------------------

-|---3---------|--3----5----|------------------|------------------------------

G1 W/ Fill 3 G2 Fill 3 (G3)

 

-|---------------------------------------------------|------------------------

-|---------------------------------------------------|------------------------

-|---------------------------------------------------|------------------------

-|-9--9--9-9--9-9--9-9-9-9--9--9--9-9--9-9--9-9-9-9--|------------------------

-|-7--7--7-7--7-7--7-7-7-7--6--6--6-6--6-6--6-6-6-6--|------------------------

-|-0--0--0-0--0-0--0-0-0-0--0--0--0-0--0-0--0-0-0-0--|------------------------

Outro G1+G2

 

-|-----------------------------------------------------|----------------------

-|-----------------------------------------------------|----------------------

-|-9--9--9-9--9-9-9-9-9-9-9--9--9--9-9--9-9-9-9-9-9-9--|----------------------

-|-7--7--7-7--7-7-7-7-7-7-7--9--9--9-9--9-9-9-9-9-9-9--|----------------------

-|-0--0--0-0--0-0-0-0-0-0-0--0--0--0-0--0-0-0-0-0-0-0--|----------------------

-|-----------------------------------------------------|----------------------

 

 

-|---------------------------------------------------|------------------------

-|---------------------------------------------------|------------------------

-|---------------------------------------------------|------------------------

-|-9--9--9-9--9-9--9-9-9-9--9--9--9-9--9-9--9-9-9-9--|------------------------

-|-7--7--7-7--7-7--7-7-7-7--6--6--6-6--6-6--6-6-6-6--|------------------------

-|-0--0--0-0--0-0--0-0-0-0--0--0--0-0--0-0--0-0-0-0--|------------------------

 

 

-|-----------------------------------------------------|----------------------

-|---------------------------9--9--9-9--9-9-9-9-9-9-9--|----------------------

-|-9--9--9-9--9-9-9-9-9-9-9--9--9--9-9--9-9-9-9-9-9-9--|----------------------

-|-7--7--7-7--7-7-7-7-7-7-7--9--9--9-9--9-9-9-9-9-9-9--|----------------------

-|-0--0--0-0--0-0-0-0-0-0-0--0--0--0-0--0-0-0-0-0-0-0--|----------------------

-|-----------------------------------------------------|----------------------

 

 

-|---------------------------------------------------|------------------------

-|---------------------------------------------------|------------------------

-|---------------------------------------------------|------------------------

-|-9--9--9-9--9-9--9-9-9-9--9--9--9-9--9-9--9-9-9-9--|------------------------

-|-7--7--7-7--7-7--7-7-7-7--6--6--6-6--6-6--6-6-6-6--|------------------------

-|-0--0--0-0--0-0--0-0-0-0--0--0--0-0--0-0--0-0-0-0--|------------------------

 

 

-|-----------------------------------------------------|----------------------

-|-----------------------------------------------------|----------------------

-|-9--9--9-9--9-9-9-9-9-9-9--9--9--9-9--9-9-9-9-9-9-9--|----------------------

-|-7--7--7-7--7-7-7-7-7-7-7--9--9--9-9--9-9-9-9-9-9-9--|----------------------

-|-0--0--0-0--0-0-0-0-0-0-0--0--0--0-0--0-0-0-0-0-0-0--|----------------------

-|-----------------------------------------------------|----------------------

Repeat last two lines till end, fade out...

 

 

 

 

Return to my to my Pearl Jam tabs page

The Tablature is Copyright its respective owners.

Sign Up For My Newsletter
Subscribe | Unsubscribe

Site Map | Disclaimer | Privacy Policy | Media Kit | Submissions/Corrections

Website © 2000-2014 mattsmusicpage.com. All rights reserved.

Legal & DMCA: Matt's Music Page has been providing lyrics and tabs in a legal way, paying royalties each year to a few organizations. Then, all lyrics and tabs were removed from the site. Now, there's a new owner to the site, which purchased it August 26, 2014, and he is in negotiation to obtain licensing from BMI at the moment. If you have a specific DMCA request -- please do not hesitate to contact me via the contact button on top. I will do my very best to keep this site fully legal.

Get our toolbar!

 

VINTAGE SORRENTO MUSIC JEWELRY BOX
$45.0
VINTAGE SORRENTO MUSIC JEWELRY BOX picture


VINTAGE LACQUERED MUSIC BOX JAPAN
$25.99
VINTAGE LACQUERED MUSIC BOX JAPAN picture


Vintage Kehlsteinhaus Bavaria Germany Colorscope Cow Bell View Master Music Box
$8.99
Vintage Kehlsteinhaus Bavaria Germany Colorscope Cow Bell View Master Music Box picture


VINTAGE SCHMIDT Signed Collectible Musical Turning Clown
$9.99
VINTAGE  SCHMIDT Signed Collectible Musical Turning Clown picture


Vintage - Linen - Postcard - Stage - Radio City Music Hall - New York City
$3.75
Vintage - Linen - Postcard - Stage - Radio City Music Hall - New York City   picture