Your One-Stop Source For
Music Lyrics
Bass and Guitar Tabs
and More...
Music Lyrics Bass and Guitar Tabs

 

The Tabs Are Below

Learn To Read Tab
Chords Handbook
Corrections & Additions
Get Official Tab
Pearl Jam tabs @ 911Tabs

 

Author/Artist: Temple Of The Dog

Title: Times Of Trouble

Album: Temple Of The Dog

Transcribed by: Evan Cowan

Email: icowan@marin.k12.ca.us

Last Updated - 03/30/99

 

-|-------------|----------------------------------------------------------|---

-|-------------|----------------------------------------------------------|---

-|-----0--0----|-------0--------------0--------------0-----------------0--|---

-|--------0----|----------------------------------------------------------|---

-|--------x----|----------------------------------------------------------|---

-|-1h3----3--1-|-x-1h3---3-1--x-x-1h3---3-1--x-x-1h3---1h3-3-1-1-1-1h3----|---

reverse strum

 

-|------------|------------|-----------|---------------------------------|----

-|------------|------------|-----------|---------------------------------|----

-|-----0------|------------|-----------|-*0\-----------------------------|----

-|------------|------------|-----0-----|---------------------------------|----

-|------------|------------|-----------|---------------------------------|----

-|-1h3---3-1--|-1h3-3--3-1-|-1h3----1--|---------------------------------|----

4x Verse, G1 4x G2*pick behind nut, trembar dive

 

-|-----------|------------------------------|---------------------------------

-|-----------|------------------------------|---------------------------------

-|-----------|------------------------------|---------------------------------

-|-----0-----|-----0----------3--3-3-3-3-3--|---------------------------------

-|-----------|----------------3--3-3-3-3-3--|---------------------------------

-|-1h3----1--|-1h3---1h3-3-1--1--1-1-1-1-1--|---------------------------------

G1 12x

 

-|-0--0---------0------0---0--0---0---0-0-0-0--|------------------------------

-|-1--3--5--3---1--3---0---0--0---1---1-1-1-1--|------------------------------

-|-0--0--x--x---0--x---0---0--0---0---0-0-0-0--|------------------------------

-|-2--2--4--4---2--4---2---2--2---2---2-2-2-2--|------------------------------

-|-3--3--5--5---3--5---2---2--2---3---3-3-3-3--|------------------------------

-|---------------------0---0--0----------------|------------------------------

Chorus 2x

 

-|-0--0---------0---1---|----------|------------------------------------------

-|-1--3--5--3---1---1---|----------|------------------------------------------

-|-0--0--x--x---0---2---|----------|------------------------------------------

-|-2--2--4--4---2---3---|----------|------------------------------------------

-|-3--3--5--5---3-------|-2--------|------------------------------------------

-|----------------------|---3-3-1--|------------------------------------------

 

 

-|-----------------------|-----------|---------------------------|------------

-|-----------------------|-----------|---------------------------|------------

-|-----------------0-----|-----------|-----0---------------------|------------

-|-----0-----------------|-----0-----|----------------3--3-3-3-3-|------------

-|-----------------------|-----------|----------------3--3-3-3-3-|------------

-|-1h3---3-1---1h3---3-1-|-1h3----1--|-1h3---1h3-3-1--1--1-1-1-1-|------------

2x Verse 9x

 

-|-0--0---------0------0---0--0---0---0-0-0-0--|------------------------------

-|-1--3--5--3---1--3---0---0--0---1---1-1-1-1--|------------------------------

-|-0--0--x--x---0--x---0---0--0---0---0-0-0-0--|------------------------------

-|-2--2--4--4---2--4---2---2--2---2---2-2-2-2--|------------------------------

-|-3--3--5--5---3--5---2---2--2---3---3-3-3-3--|------------------------------

-|---------------------0---0--0----------------|------------------------------

Chorus 2x

 

-|-------------------|----------------1--|------------------------------------

-|-------------------|----------------1--|------------------------------------

-|-------------------|----------------2--|------------------------------------

-|-2----4----5----7--|-2----4----5----3--|------------------------------------

-|-2----4----5----7--|-2----4----5-------|------------------------------------

-|-0----2----3----5--|-0----2----3-------|------------------------------------

G1 2x

 

-|-----------------------------|--------------------|-------------------------

-|---------0-------------------|---------0----------|-------------------------

-|---------0---------7p6---7p6-|---------0------10--|-------------------------

-|-2---------5----7------7-----|-2---------5----10--|-------------------------

-|-2----4----5----7------------|-2----4----5-----8--|-------------------------

-|-0----2----3----5------------|-0----2----3--------|-------------------------

G2 2x

 

-|----------|----------------|------------------------------------|-----------

-|----------|----------------|------------------------------------|-----------

-|----------|-----0----------|-12---14--12--12----------12h14p12--|-----------

-|----------|----------------|------------------12--12------------|-----------

-|-2--------|----------------|------------------------------------|-----------

-|---3-3-1--|-1h3----1-------|------------------------------------|-----------

G1 Harm.solo, G1 8x G2(clean, w/wah)

 

-|-------------12p10---------------------------------------------------|------

-|-15--12--12--------12p10-10h12---15p12-15p12-15p12-15p12-15p12-15p12-|------

-|---------------------------------------------------------------------|------

-|---------------------------------------------------------------------|------

-|---------------------------------------------------------------------|------

-|---------------------------------------------------------------------|------

G2

 

-|-0--0---------0------0---0--0---0---0-0-0-0--|------------------------------

-|-1--3--5--3---1--3---0---0--0---1---1-1-1-1--|------------------------------

-|-0--0--x--x---0--x---0---0--0---0---0-0-0-0--|------------------------------

-|-2--2--4--4---2--4---2---2--2---2---2-2-2-2--|------------------------------

-|-3--3--5--5---3--5---2---2--2---3---3-3-3-3--|------------------------------

-|---------------------0---0--0----------------|------------------------------

2x

 

-|-------------------|----------------1----|----------------------------------

-|-------------------|----------------1----|----------------------------------

-|-------------------|----------------2----|----------------------------------

-|-2----4----5----7--|-2----4----5----3----|----------------------------------

-|-2----4----5----7--|-2----4----5---------|----------------------------------

-|-0----2----3----5--|-0----2----3---------|----------------------------------

G1 2x

 

-|-----------------------------|--------------------|-------------------------

-|---------0-------------------|---------0----------|-------------------------

-|---------0---------7p6---7p6-|---------0------10--|-------------------------

-|-2---------5----7------7-----|-2---------5----10--|-------------------------

-|-2----4----5----7------------|-2----4----5-----8--|-------------------------

-|-0----2----3----5------------|-0----2----3--------|-------------------------

G2 2x

 

-|-------------------|--------------|------------|--3--|----------------------

-|-------------------|--------------|------------|--3--|----------------------

-|-----0--0----------|-------0------|------0-----|--0--|----------------------

-|--------0----------|---------0----|------0-----|--0--|----------------------

-|--------x----------|---------x----|------x-----|--2--|----------------------

-|-1h3----3-1--------|-x-1h3---3-1--|-1h3--3--1--|--3--|----------------------

reverse strum End

 

 

Return to my to my Pearl Jam tabs page

The Tablature is Copyright its respective owners.

Sign Up For My Newsletter
Subscribe | Unsubscribe

Site Map | Disclaimer | Privacy Policy | Media Kit | Submissions/Corrections

Website © 2000-2014 mattsmusicpage.com. All rights reserved.

Legal & DMCA: Matt's Music Page has been providing lyrics and tabs in a legal way, paying royalties each year to a few organizations. Then, all lyrics and tabs were removed from the site. Now, there's a new owner to the site, which purchased it August 26, 2014, and he is in negotiation to obtain licensing from BMI at the moment. If you have a specific DMCA request -- please do not hesitate to contact me via the contact button on top. I will do my very best to keep this site fully legal.

Get our toolbar!