Your One-Stop Source For
Music Lyrics
Bass and Guitar Tabs
and More...
Music Lyrics Bass and Guitar Tabs

 

The Tabs Are Below

Learn To Read Tab
Chords Handbook
Corrections & Additions
Get Official Tab
Pearl Jam tabs @ 911Tabs

 

Author/Artist: Pearl Jam

Title: Spin The Black Circle

Album: Vitalogy

Transcribed by: Evan Cowan

Email: icowan@marin.k12.ca.us

 

-|-----------------------------------------------------------------------|----

-|-----------------------------------------------------------------------|----

-|-------4--4-4-4-4-4-4-4-4-4-4-4-------4--4-4-4-4-4-4-4-4-4-4-4-4-4-4-4-|----

-|-------4--4-4-4-4-4-4-4-4-4-4-4-------4--4-4-4-4-4-4-4-4-4-4-4-4-4-4-4-|----

-|-0---0-2--2-2-2-2-2-2-2-2-2-2-2-0---0-2--2-2-2-2-2-2-2-2-2-2-2-2-2-2-2-|----

-|---3------------------------------3------------------------------------|----

Intro, G1 With G2

 

-|----------------------------------------|-----------------------------------

-|----------------------------------------|-----------------------------------

-|-------4--4-4-4-4-4-4-4-4-4-4-4-4-9-9-9-|-----------------------------------

-|-------4--4-4-4-4-4-4-4-4-4-4-4-4-9-9-9-|-----------------------------------

-|-0---0-2--2-2-2-2-2-2-2-2-2-2-2-2-7-7-7-|-----------------------------------

-|---3------------------------------------|-----------------------------------

Intro, G2

 

-|---------------|-------8-8------8-8-|------------|-------8-8----------|-----

-|---------------|--8----8-8-8----8-8-|------------|--8----8-8--8-------|-----

-|-10\9--8--7--5-|-10b12----10b12-----|-10\9-8-7-5-|-10b12-----10b12r10-|-----

-|-10\9--8--7--5-|--------------------|-10\9-8-7-5-|--------------------|-----

-|--8\7--6--5--3-|--------------------|--8\7-6-5-3-|--------------------|-----

-|---------------|--------------------|------------|--------------------|-----

G1 G2 G1 G2

 

-|------------|-------8-8-------8-8-|------------|--8----8-8--8----8-8-|------

-|------------|--8----8-8--8----8-8-|------------|-11b13-----11b13-----|------

-|-10\9-8-7-5-|-10b12-----10b12-----|-10\9-8-7-5-|---------------------|------

-|-10\9-8-7-5-|---------------------|-10\9-8-7-5-|---------------------|------

-|--8\7-6-5-3-|---------------------|--8\7-6-5-3-|---------------------|------

-|------------|---------------------|------------|---------------------|------

3x

 

-|------------|-------8-8-------8-8-|---------------------------------------|-

-|------------|--8----8-8--8----8-8-|---------------------------------------|-

-|-10\9-8-7-5-|-10b12-----10b12-----|-------4-------------------------------|-

-|-10\9-8-7-5-|---------------------|-------4--4-4-4-4-4-4-4-4-4-4-4-4-4-4-4|-

-|--8\7-6-5-3-|---------------------|-0---0-2--2-2-2-2-2-2-2-2-2-2-2-2-2-2-2|-

-|------------|---------------------|---3-----------------------------------|-

2x Verse w/Fill 1 2nd time

 

-|-------------------------|-------|----------------------------------------|-

-|-------------------------|-------|----------------------------------------|-

-|-------------------------|-------|-4--------------------------------------|-

-|-4-4-4-4-4-4-4-4-4-4-4-4-|-------|-4--4-4-4-4-4-4-4-4-4-4-4-4-4-4-4-4-4-4-|-

-|-2-2-2-2-2-2-2-2-2-2-2-2-|-0---0-|-2--2-2-2-2-2-2-2-2-2-2-2-2-2-2-2-2-2-2-|-

-|-------------------------|---3---|----------------------------------------|-

p.m.--------------------|

 

-|-------|---------|-------|---------|--2-----|-------------------------------

-|-------|---------|-------|---------|--3-----|-------------------------------

-|-2-2-2-|-7-7-7-7-|-------|-7-7-7-7-|--4-----|-------------------------------

-|-2-2-2-|-7-7-7-7-|-------|-7-7-7-7-|--4-----|-------------------------------

-|-0-0-0-|-5-5-5-5-|-------|-5-5-5-5-|--2-----|-------------------------------

-|-------|---------|-5-3-5-|---------|--------|-------------------------------

7x 8x Fill 1 (reverse strum)

 

-|------------|-------8-8-------8-8-|------------|----------------------------

-|------------|--8----8-8--8----8-8-|------------|----------------------------

-|-10\9-8-7-5-|-10b12-----10b12-----|-10\9-8-7-5-|----------------------------

-|-10\9-8-7-5-|---------------------|-10\9-8-7-5-|----------------------------

-|--8\7-6-5-3-|---------------------|--8\7-6-5-3-|----------------------------

-|------------|---------------------|------------|----------------------------

|-------------------4x------------------------|

 

-|----------------------|------------|-------8-8-------8-8-|-------------|----

-|----------------------|------------|--8----8-8--8----8-8-|-------------|----

-|----------------------|-10\9-8-7-5-|-10b12-----10b12-----|-10\9-8-7-5--|----

-|----------------------|-10\9-8-7-5-|---------------------|-10\9-8-7-5--|----

-|----------------------|--8\7-6-5-3-|---------------------|--8\7-6-5-3--|----

-|----------------------|------------|---------------------|-------------|----

Verse, same as before |-------------------4x-------------------------|

 

-|-----------------------------------------------------------------|----------

-|-----------------------------------------------------------------|----------

-|-----------------------------------------------------------------|----------

-|-5-5-5-6-6-6-5-5-4-4-4-5-5-5-4-4-3-3-3-4-4-4-3-3-2-2-2-2-2-5-5-5-|----------

-|-----------------------------------------------------------------|----------

-|-----------------------------------------------------------------|----------

G1

 

-|---------------------------------------------------------|------------------

-|---------------------------------------------------------|------------------

-|-5-5-5-6-6-6-5-5-4-4-4-5-5-5-4-4-3-3-3-4-4-4-3-3-2-2-2-2-|------------------

-|-5-5-5-6-6-6-5-5-4-4-4-5-5-5-4-4-3-3-3-4-4-4-3-3-2-2-2-2-|------------------

-|---------------------------------------------------------|------------------

-|---------------------------------------------------------|------------------

G2 play both times, G1 play 2nd time

 

-|-------|---------|-------|---------|---------|------------------------------

-|-------|---------|-------|---------|---------|------------------------------

-|-------|-4-4-4-4-|-------|-7-7-7-7-|-9-9-9-9-|------------------------------

-|-------|-4-4-4-4-|-------|-7-7-7-7-|-9-9-9-9-|------------------------------

-|-0---0-|-2-2-2-2-|-2-0-2-|-5-5-5-5-|-7-7-7-7-|--11---\----------------------

-|---3---|---------|-------|---------|---------|---------\--------------------

7x 8x 16x Fill(trem. pick, slow slide)

 

-|------------|-------8-8-------8-8-|------------|------------|---------------

-|------------|--8----8-8--8----8-8-|------------|------------|---------------

-|-10\9-8-7-5-|-10b12-----10b12-----|-10\9-8-7-5-|-10\9-8-7-5-|---------------

-|-10\9-8-7-5-|---------------------|-10\9-8-7-5-|-10\9-8-7-5-|---------------

-|--8\7-6-5-3-|---------------------|--8\7-6-5-3-|--8\7-6-5-3-|---------------

-|------------|---------------------|------------|------------|---------------

|----------------------4x---------------------| Play until end

 

-|--8-----8------8----|---------------------|-15-16-15-14-15-14-13-14-13-12-|-

-|-11b13-11b13--11b13-|---------------------|-------------------------------|-

-|--------------------|---------------------|-------------------------------|-

-|--------------------|-5-/--/--/-10--------|-------------------------------|-

-|--------------------|-/----------/--------|-------------------------------|-

-|--------------------|-/----------/--------|-------------------------------|-

Outro Fills trem. pick (slide up)

 

-|-15-16-15-|---------|-------------------------------------------------------

-|----------|---------|-------------------------------------------------------

-|----------|---------|-------------------------------------------------------

-|----------|---------|-------------------------------------------------------

-|----------|---------|-------------------------------------------------------

-|----------|-8b10r8\-|-------------------------------------------------------

 

 

 

 

 

Return to my to my Pearl Jam tabs page

The Tablature is Copyright its respective owners.

Sign Up For My Newsletter
Subscribe | Unsubscribe

Site Map | Disclaimer | Privacy Policy | Media Kit | Submissions/Corrections

Website © 2000-2014 mattsmusicpage.com. All rights reserved.

Legal & DMCA: Matt's Music Page has been providing lyrics and tabs in a legal way, paying royalties each year to a few organizations. Then, all lyrics and tabs were removed from the site. Now, there's a new owner to the site, which purchased it August 26, 2014, and he is in negotiation to obtain licensing from BMI at the moment. If you have a specific DMCA request -- please do not hesitate to contact me via the contact button on top. I will do my very best to keep this site fully legal.

Get our toolbar!