Your One-Stop Source For
Music Lyrics
Bass and Guitar Tabs
and More...
Music Lyrics Bass and Guitar Tabs

 

The Tabs Are Below

Learn To Read Tab
Chords Handbook
Corrections & Additions
Get Official Tab
Pearl Jam tabs @ 911Tabs

 

Author/Artist: Temple Of The Dog

Title: Your Saviour

Album: Temple Of The Dog

Transcribed by: Evan Cowan

Email: icowan@marin.k12.ca.us

(04/08/99)

 

Dropped-D tuning

 

-|------|-----|------------------------------|------------------------------|-

-|------|-----|------------------------------|------------------------------|-

-|------|-----|------------------------------|------------------------------|-

-|-0-2--|-----|-0-2-x-x-x-x-0-0--2-2-2-2p0---|-0-2-x-x-x-x-0-0--2-2-2-2p0---|-

-|-0-2--|-----|-0-2------------------------2-|-0-2------------------------2-|-

-|-0-2--|-----|-0-2--------------------------|-0-2--------------------------|-

Intro/Verse, G1 12x

 

-|-------------------------------------------|------------------------------|-

-|-------------------------------------------|------------------------------|-

-|-------------------------------------------|------------------------------|-

-|-5-5--2-2--2-2--3-5-0-x-x-x-x-3-5vvv-3p0-0-|-0-2-x-x-x-x-0-0--2-2-2-2p0---|-

-|-5-5--2-2--2-2--3-5-0----------------------|-0-2------------------------2-|-

-|-5-5--2-2--2-2--3-5-0----------------------|-0-2--------------------------|-

 

 

-|--------------------------|----------------------------|--------------------

-|--------------------------|----------------------------|--------------------

-|--------------------------|----------------------------|--------------------

-|-5-0-x-x-x-x-3-5vvv-3p0-0-|-3-5-0-x-x-x-x-3-5vvv-3p0-0-|--------------------

-|-5-0----------------------|-3-5-0----------------------|--------------------

-|-5-0----------------------|-3-5-0----------------------|--------------------

3x

 

-|-------------------------------------------|--------------------------------

-|-------------------------------------------|--------------------------------

-|-------------------------------------------|--------------------------------

-|-0--2--0--2--5---2--0--2--0--2-7--0--2--5--|--------------------------------

-|-0--2--0--2--5---2--0--2--0--2-7--0--2--5--|--------------------------------

-|-0--2--0--2--5---2--0--2--0--2-7--0--2--5--|--------------------------------

Chorus

 

-|------------------------------|-------------------------------------------|-

-|------------------------------|-------------------------------------------|-

-|------------------------------|-------------------------------------------|-

-|-0-2-x-x-x-x-0-0--2-2-2-2p0---|-5-5--2-2--2-2--3-5-0-x-x-x-x-3-5vvv-3p0-0-|-

-|-0-2------------------------2-|-5-5--2-2--2-2--3-5-0----------------------|-

-|-0-2--------------------------|-5-5--2-2--2-2--3-5-0----------------------|-

9x

 

-|------------------------------|--------------------------|------------------

-|------------------------------|--------------------------|------------------

-|------------------------------|--------------------------|------------------

-|-0-2-x-x-x-x-0-0--2-2-2-2p0---|-5-0-x-x-x-x-3-5vvv-3p0-0-|------------------

-|-0-2------------------------2-|-5-0----------------------|------------------

-|-0-2--------------------------|-5-0----------------------|------------------

 

 

-|----------------------------|-------------------------------------------|---

-|----------------------------|-------------------------------------------|---

-|----------------------------|-------------------------------------------|---

-|-3-5-0-x-x-x-x-3-5vvv-3p0-0-|-0--2--0--2--5---2--0--2--0--2-7--0--2--5--|---

-|-3-5-0----------------------|-0--2--0--2--5---2--0--2--0--2-7--0--2--5--|---

-|-3-5-0----------------------|-0--2--0--2--5---2--0--2--0--2-7--0--2--5--|---

3x Chorus

 

-|-------------------------------------------|--------------------------------

-|-------------------------------------------|--------------------------------

-|-------------------------------------------|--------------------------------

-|-------------2--------------------0-0------|--------------------------------

-|-------------------------------------------|--------------------------------

-|-0-2--0-0--2-2-2--0-0-0--5-5-5--0-0-0--0-0-|--------------------------------

G1, bottom, G2, top

 

-|-------------------------------------------|--------------------------------

-|-------------------------------------------|--------------------------------

-|-------------------------------------------|--------------------------------

-|------0-0--0-2-2------------------0-0------|--------------------------------

-|-------------------------------------------|--------------------------------

-|-0-2--0-0--0-2-2--0-0-0--5-5-5--0-0-0--2-2-|--------------------------------

same as before

 

-|---------------------------------------------|------------------------------

-|---------------------------------------------|------------------------------

-|---------------------------------------------|------------------------------

-|------0-0--0-2-2------------------0-0--------|------------------------------

-|---------------------------------------------|------------------------------

-|-0-2--0-0--0-2-2--0-0-0--5-5-5--0-0-0--0-0-0-|------------------------------

 

 

-|---------------------------------------------|-------|----------------------

-|---------------------------------------------|-------|----------------------

-|---------------------------------------------|-------|----------------------

-|------0-0--0-2-2------------------0-0--------|-------|----------------------

-|---------------------------------------------|-------|----------------------

-|-0-2--0-0--0-2-2--0-0-0--5-5-5--0-0-0--2-2-2-|--15\--|----------------------

G1

 

-|-------------------------------------------|-----------------|--------------

-|-------------------------------------------|-----------------|--------------

-|-------------------------------------------|-----------------|--------------

-|-------------2--------------------0-0------|-----------------|--------------

-|-------------------------------------------|-----------------|--------------

-|-0-2--0-0--0-2-2--0-0-0--5-5-5--0-0-0--0-0-|--x-/15\--x-/15\-|--------------

Vox enter G1

 

-|-------------------------------------------|-----------------|--------------

-|-------------------------------------------|-----------------|--------------

-|-------------------------------------------|-----------------|--------------

-|------0-0--0-2-2------------------0-0------|-----------------|--------------

-|-------------------------------------------|-----------------|--------------

-|-0-2--0-0--0-2-2--0-0-0--5-5-5--0-0-0--2-2-|--x-/15\--x-/15\-|--------------

G1

 

-|-------------------------------------------|-----------------|--------------

-|-------------------------------------------|-----------------|--------------

-|-------------------------------------------|-----------------|--------------

-|-------------2--------------------0-0------|-----------------|--------------

-|-------------------------------------------|-----------------|--------------

-|-0-2--0-0--0-2-2--0-0-0--5-5-5--0-0-0--0-0-|--x-/15\--x-/15\-|--------------

G1

 

-|-------------------------------------------|--------------------------------

-|-------------------------------------------|--------------------------------

-|-------------------------------------------|--------------------------------

-|------0-0--0-2-2------------------0-0------|--------------------------------

-|-------------------------------------------|--------------------------------

-|-0-2--0-0--0-2-2--0-0-0--5-5-5--0-0-0--2-2-|--------------------------------

 

 

-|-------------------------------------------------|--------------------------

-|-------------------------------------------------|--------------------------

-|-------------------------------------------------|--------------------------

-|-0--2--0--2--5--2--0--2--0--7--0--2--5--2--0--2--|--------------------------

-|-0--2--0--2--5--2--0--2--0--7--0--2--5--2--0--2--|--------------------------

-|-0--2--0--2--5--2--0--2--0--7--0--2--5--2--0--2--|--------------------------

Solo rhythm, G1 3x

 

-|----------------------------------------|-----------------------------------

-|----------------------------------------|-----------------------------------

-|----------------------------------------|-----------------------------------

-|-0--2--0--2--5--2--0--2--0--7--0--2--5--|-----------------------------------

-|-0--2--0--2--5--2--0--2--0--7--0--2--5--|-----------------------------------

-|-0--2--0--2--5--2--0--2--0--7--0--2--5--|-----------------------------------

 

 

-|-------------------------------------------------------------|--------------

-|---------------------------------------------15-b-17--vvvvvv-|--------------

-|-14vvvvvvv-14vvvvvvvv-14vvvvvvvv-14vvvvvvv-\-----------------|--------------

-|-------------------------------------------------------------|--------------

-|-------------------------------------------------------------|--------------

-|-------------------------------------------------------------|--------------

Solo (w/wah) wide vibrato grad.bend

 

-|-12-15------------------------------------------|---------------------------

-|-------12----------------------12---------------|---------------------------

-|----------14b15-15r14-12-14-14----12vvv-\--/--\-|---------------------------

-|-------------------------------------------/--\-|---------------------------

-|------------------------------------------------|---------------------------

-|------------------------------------------------|---------------------------

 

 

-|---------------------------------------------------------------------|------

-|---------------------------------------------------------------------|------

-|-12-------------14p12-------------14p12----------------------------0-|------

-|----14-14-14p12-------14-14p12----------14-14p12----14p12------------|------

-|-------------------------------14----------------14-------14-14-12---|------

-|---------------------------------------------------------------------|------

 

 

-|-----------------------|-15p12----------------------------------------|-----

-|-----------------------|-------12----12h15p12----12h15p12----15p12----|-----

-|-2b3-2b3r2-2b3vvvvvvv/-|----------14----------14----------14-------14-|-----

-|-----------------------|----------------------------------------------|-----

-|-----------------------|----------------------------------------------|-----

-|-----------------------|----------------------------------------------|-----

 

 

-|----------------------------------------------------------|-----------------

-|-12h15p12----12h15p12----12h15p12----12h15p12----12h15p12-|-----------------

-|----------14----------14----------14----------14----------|-----------------

-|----------------------------------------------------------|-----------------

-|----------------------------------------------------------|-----------------

-|----------------------------------------------------------|-----------------

 

 

-|-------------------------------------|--------------------------------------

-|-12h15p12----12h15p12-15b17vvvvvvv-\-|--------------------------------------

-|----------14-------------------------|--------------------------------------

-|-------------------------------------|--------------------------------------

-|-------------------------------------|--------------------------------------

-|-------------------------------------|--------------------------------------

 

 

-|------------------------------|---------------------------------------------

-|------------------------------|---------------------------------------------

-|------------------------------|---------------------------------------------

-|-0-2-x-x-x-x-0-0--2-2-2-2p0---|---------------------------------------------

-|-0-2------------------------2-|---------------------------------------------

-|-0-2--------------------------|---------------------------------------------

8x

 

-|-------------------------------------|-------------|------------------------

-|-7--5--------------------------------|-7--5--------|------------------------

-|-7--7--------------------9--6--------|-7--7--------|------------------------

-|-0--0--------4--6--------7--7--------|-0--0--------|------------------------

-|-0--0--------4-----------0--0--------|-0--0--------|------------------------

-|-0--0--------4-----------0--0--------|-0--0--------|------------------------

let all chords ring 4x 4x End

 

 

Return to my to my Pearl Jam tabs page

The Tablature is Copyright its respective owners.

Sign Up For My Newsletter
Subscribe | Unsubscribe

Site Map | Disclaimer | Privacy Policy | Media Kit | Submissions/Corrections

Website © 2000-2014 mattsmusicpage.com. All rights reserved.

Legal & DMCA: Matt's Music Page has been providing lyrics and tabs in a legal way, paying royalties each year to a few organizations. Then, all lyrics and tabs were removed from the site. Now, there's a new owner to the site, which purchased it August 26, 2014, and he is in negotiation to obtain licensing from BMI at the moment. If you have a specific DMCA request -- please do not hesitate to contact me via the contact button on top. I will do my very best to keep this site fully legal.

Get our toolbar!