Your One-Stop Source For
Music Lyrics
Bass and Guitar Tabs
and More...
Music Lyrics Bass and Guitar Tabs

 

The Tabs Are Below

Learn To Read Tab
Chords Handbook
Corrections & Additions
Get Official Tab
Pearl Jam tabs @ 911Tabs

 

Author/Artist: Stone Gossard and Mike McCready

Title: Satan's Bed

Album: Vitalogy

Transcribed by: Chris Wilson (rhythm and fills) Evan Cowan (solo)

Email: yokel@zip.com.au/icowan@marin.k12.ca.us

 

(l.t.CD) means listen to CD for strumming pattern.

 

-|--15-x-15-15^--|--15--|---------------------------------|-------------------

-|---------------|------|---------------------------------|-------------------

-|---------------|------|---------------------------------|-------------------

-|---------------|------|---------------------------------|-------------------

-|---------------|------|------4-----4-----4--------------|-------------------

-|---------------|------|--5-5---5-5---5-5---5-4-3vv-0-3--|-------------------

Intro Mike 4x Stone 4x

 

-|---------------------------------|---------------------------------|--------

-|---------------------------------|---------------------------------|--------

-|---------------------------------|---------------------------------|--------

-|---------------------------------|---------------------------------|--------

-|------4-----4-----4--------------|------4-----4-----4--------------|--------

-|--5-5---5-5---5-5---5-4-3vv-0-3--|--5-5---5-5---5-5---5-4-3vv-0-3--|--------

Verse Stone 8x 4th time Ed doubles Stone till Chorus

 

-|--------------15-------15--|--------------------15-------15--|--------------

-|--13-15-15b17----15b17-----|--13h15-13h15-15b17----15b17-----|--------------

-|---------------------------|---------------------------------|--------------

-|---------------------------|---------------------------------|--------------

-|---------------------------|---------------------------------|--------------

-|---------------------------|---------------------------------|--------------

Mike (l.t. CD for placement)

 

-|--------15-------15--------|--------------|-----------------------15--|-----

-|--15b17----15b17----17r15--|--------------|--13h15--13h15--15b17------|-----

-|---------------------------|--5-----7-----|---------------------------|-----

-|---------------------------|--5--5--7--7--|---------------------------|-----

-|---------------------------|--3--5--5--7--|---------------------------|-----

-|---------------------------|-----3-----5--|---------------------------|-----

Chorus Stone x4 Mike

 

-|------------------|-----------------------15--|------------------|----------

-|--15b17r15p13-----|--13h15--13h15--15b17------|--15b17r15p13-15--|----------

-|--------------12--|---------------------------|------------------|----------

-|------------------|---------------------------|------------------|----------

-|------------------|---------------------------|------------------|----------

-|------------------|---------------------------|------------------|----------

(jam)

 

-|---------------------------------|--------------|----------------------15-|-

-|---------------------------------|--------------|--13h15--13h15--15b17----|-

-|---------------------------------|--5-----7-----|-------------------------|-

-|---------------------------------|--5--5--7--7--|-------------------------|-

-|------4-----4-----4--------------|--3--5--5--7--|-------------------------|-

-|--5-5---5-5---5-5---5-4-3vv-0-3--|-----3-----5--|-------------------------|-

Verse Stone 8x Chorus Stone 4x Mike

 

-|------------------|-----------------------15--|------------------|----------

-|--15b17r15p13-----|--13h15--13h15--15b17------|--15b17r15p13-15--|----------

-|--------------12--|---------------------------|------------------|----------

-|------------------|---------------------------|------------------|----------

-|------------------|---------------------------|------------------|----------

-|------------------|---------------------------|------------------|----------

(jam)

 

-|------------------------------|---------------------------------------------

-|------------------------------|------------------------------10--10p8h10----

-|--5---------------------------|--/12-12b14-14-14-14-14-14-14----------------

-|--5--5-5-5-5-5-5-x-x-5-5-5-5--|---------------------------------------------

-|--3--3-3-3-3-3-3-x-x-3-3-3-3--|---------------------------------------------

-|------------------------------|---------------------------------------------

Solo Stone PM after 1st C (l.t.CD) Mikey!

 

----------------|-------------------|-----------------|-----------------------

---10-----------|-------------------|--7b8-8-8-8-8r7--|--14-------------------

------12p9\7h9--|--7-7b8-8-8r7-7-7--|--7b8-8-8-8-8r7--|--14----16b17r16-14----

----------------|-------------------|-----------------|-----16-16b17r16-------

----------------|-------------------|-----------------|-----------------------

----------------|-------------------|-----------------|-----------------------

 

 

---------------|----------------------------------|---------------------------

---------------|------16-14-----16-14------16-14--|--/17-17-17----17----17----

--16b17r16-14--|--14--16-14-----16-14------16-14--|--/17-17-17----17----17----

--16b17r16-----|--14--------16---------16---------|------------19----19----9--

---------------|----------------------------------|---------------------------

---------------|----------------------------------|---------------------------

 

 

---------|------------------------------------|-------------------------------

--17-19--|--19b20r19-19-19b20r19-19-19b20r19--|-------------------------------

--17-19--|--19b20r19-19-19b20r19-19-19b20r19--|-------------------------------

---------|------------------------------------|-------------------------------

---------|------------------------------------|-------------------------------

---------|------------------------------------|-------------------------------

 

 

-|---------------------------------|---12vvvvv--15b17---|---------------------

-|---------------------------------|--------------------|---------------------

-|---------------------------------|--------------------|---------------------

-|---------------------------------|--------------------|---------------------

-|------4-----4-----4--------------|--------------------|---------------------

-|--5-5---5-5---5-5---5-4-3vv-0-3--|--------------------|---------------------

Verse Stone 8x Mike (l.t CD for placement)

 

-|----------------9-------9-------9--------------|----------------------------

-|--8-8-8-9-10-10---10-10---10-10---10-9-8vv-8\--|----------------------------

-|-----------------------------------------------|----------------------------

-|-----------------------------------------------|----------------------------

-|-----------------------------------------------|----------------------------

-|-----------------------------------------------|----------------------------

(l.t CD for placement)

 

-|--------------|-----------------------15--|------------------|--------------

-|--------------|--13h15--15p13--15b17------|--15b17r15p13-----|--------------

-|--5-----7-----|---------------------------|--------------12--|--------------

-|--5--5--7--7--|---------------------------|------------------|--------------

-|--3--5--5--7--|---------------------------|------------------|--------------

-|-----3-----5--|---------------------------|------------------|--------------

Chorus Stone Mike (jam)

 

-|-----------------------15--|------------------|--------------------------|--

-|--13h15--13h15--15b17------|--15b17r15p13-15v-|--------------------------|--

-|---------------------------|------------------|--------------------------|--

-|---------------------------|------------------|--------------------------|--

-|---------------------------|------------------|--------------------------|--

-|---------------------------|------------------|--------------------------|--

(jam) ...it's all Am\C pent. Fade out......

 

 

 

Return to my to my Pearl Jam tabs page

The Tablature is Copyright its respective owners.

Sign Up For My Newsletter
Subscribe | Unsubscribe

Site Map | Disclaimer | Privacy Policy | Media Kit | Submissions/Corrections

Website © 2000-2014 mattsmusicpage.com. All rights reserved.

Legal & DMCA: Matt's Music Page has been providing lyrics and tabs in a legal way, paying royalties each year to a few organizations. Then, all lyrics and tabs were removed from the site. Now, there's a new owner to the site, which purchased it August 26, 2014, and he is in negotiation to obtain licensing from BMI at the moment. If you have a specific DMCA request -- please do not hesitate to contact me via the contact button on top. I will do my very best to keep this site fully legal.

Get our toolbar!