Your One-Stop Source For
Music Lyrics
Bass and Guitar Tabs
and More...
Music Lyrics Bass and Guitar Tabs

 

The Tabs Are Below

Learn To Read Tab
Chords Handbook
Corrections & Additions
Get Official Tab
Pearl Jam tabs @ 911Tabs

 

Author/Artist: Pearl Jam

Title: Release

Album: Ten

Transcribed by: Evan Cowan

Email: icowan@marin.k12.ca.us

 

From the Ten songbook

 

 

-|-0h2p0---------0-------3--0-------|-0h2p0--------------0---------|----------

-|-------3---------3----------------|-------3--------------3-----3-|----------

-|---------2---------2--------------|---------2--------------2-2-2-|----------

-|-0-----------0-------0------------|-------------2----2-----0-0---|----------

-|----------------------------------|------------------------------|----------

-|----------------------------------|------------------------------|----------

Main arpeggio, guitar 1--play 31x 32nd time

 

-|--------|---------|--------|------|-----|----|-----------|-----|------------

-|--------|---------|--------|------|-----|----|-----------|-----|------------

-|--------|---------|-7^-----|------|-12--|----|-----------|-----|------------

-|-0------|-12^-----|--------|---0--|-----|--0-|---0-0-----|--0--|------------

-|--------|---------|--------|------|-----|----|-----------|-----|------------

-|--------|---------|--------|------|-----|----|-----------|-----|------------

Guitar 2, enter 5th time of arpeggio

 

-|------|---|-3p2---------|------|-----|---------|---------3p2-----|-5-vvv-|--

-|------|---|-3---3-------|------|-----|---------|-----------------|-3-vvv-|--

-|------|---|-------------|------|-----|---------|-------------2-2-|-------|--

-|---0--|---|--------0--0-|-0----|--0--|--0-0-0--|--0---0----------|-------|--

-|------|---|-------------|------|-----|---------|-----------------|-------|--

-|------|---|-------------|------|-----|---------|-----------------|-------|--

Verse, guitar 2

 

-|-------------------------|---3vvvvvvvvvv-|----------|-----------|---------|-

-|-------------------------|-3-------------|----------|-----------|---------|-

-|------------7^vvvvvvvvvv-|---------------|-------7^-|--7vvvvvvv-|-7vvvvvvv|-

-|-0-12^--7^---------------|---------------|-7^-7^----|-----------|---------|-

-|-------------------------|---------------|----------|-----------|---------|-

-|-------------------------|---------------|----------|-----------|---------|-

 

 

-|-2--3p2----2--3p2---2-|----3-2------2---0-|----2-------2----|-----------2-|-

-|-3------3--3--3---3-3-|-3--------3----3---|-3--3----3--3----|-3-----3---3-|-

-|-2------2---------2---|-2--------2----2---|-2-----2-2-----2-|-2---2-2-----|-

-|-0--------------------|-------------------|-----------------|-------------|-

-|----------------------|-------------------|-----------------|-------------|-

-|----------------------|-------------------|-----------------|-------------|-

Chorus, guitar 1

 

-|-----2-------2-|-----2--------2---0-|-----2-------2-|-2-|-------------------

-|-3---3---3---3-|-3---3---3------3---|-3---3---3---3-|-3-|-------------------

-|-2-------2-----|-2-------2------2---|-2-------2-----|-2-|-------------------

-|---------------|--------------------|---------------|-0-|-------------------

-|---------------|--------------------|---------------|---|-------------------

-|---------------|--------------------|---------------|---|-------------------

 

 

-|------3---3-|-|--------|-----5--|-2-3--------|--------|----------|----|-----

-|----3---3---|-|-----3--|--------|------------|--------|----------|----|-----

-|-7----------|-|--------|--------|------------|-7^-----|-7--------|----|-----

-|------------|-|--------|--------|-0-------7^-|------0-|-----0--0-|-7^-|-----

-|------------|-|-5------|--------|------------|--------|----------|-5--|-----

-|------------|-|--------|--------|------------|--------|----------|----|-----

Chorus, guitar 2

 

-|-0h2p0---------0-------3--0-|---2--2-----------------|----------------------

-|-------3---------3----------|-3-3--3-3-3-3---3-------|----------------------

-|---------2---------2--------|-2------2-2-2---2-0-----|----------------------

-|-0-----------0-------0------|------------0-----------|----------------------

-|----------------------------|------------------------|----------------------

-|----------------------------|------------------------|----------------------

2nd Verse, guitar 1-15x 16th time /\with dist.

 

-|-3p2-----|------|------|----------------|------|-----------|----------------

-|-3-------|---3--|------|----------------|------|-----------|----------------

-|---------|------|-7\---|-7^----12^--12^-|------|-----7^----|----------------

-|---------|------|---\--|----7^----------|-0----|--------7^-|----------------

-|---------|------|------|----------------|------|-----------|----------------

-|---------|------|------|----------------|------|-----------|----------------

2nd Verse, guitar 2

 

-|---------------------|----|-----------------------------|-----------------|-

-|---------------------|----|-----------------------------|-----------------|-

-|-7^---x-----x-7^-----|----|-12^-------------------12^---|-----------------|-

-|--------7^--------7^-|-7^-|-----0--0--0-0-0-0-12^-----0-|-12^-12^-----7-7-|-

-|---------------------|----|-----------------------------|---------0-0-----|-

-|---------------------|----|-----------------------------|-----------------|-

let ring

 

-|--------------|---|-------|----------------------|-----------------------|--

-|--------------|---|-------|----------------------|-----------------------|--

-|--------------|---|-------|----------------------|-----------------------|--

-|---0-12^---0--|-0-|----0--|-0--0-0--0-0--0-0-0-0-|-0--0-0-0-0-0--0-0-0-0-|--

-|--------------|---|-------|----------------------|-----------------------|--

-|--------------|---|-------|----------------------|-----------------------|--

<

 

-|-------------|-2--2-2\-2--2---2-|------------0-0-|-2---2-2-2-2---2-2-|------

-|-------------|-3--3-3\-3--3-x-3-|------------3-3-|-3---3-3-3-3---3-3-|------

-|---------12^-|-2--2-2\-4--4-x-4-|-5------5---2-2-|-2---2-2-2-4---4-4-|------

-|-----12^-----|-0--0-0--4--4-x-4-|-5------5---2-2-|-0---0-0-0-4---4-4-|------

-|-12^---------|---------2--2---2-|-3------3---0-0-|-----------2---2-2-|------

-|-------------|------------------|----------------|-------------------|------

2nd Chorus, guitar 1

 

-|------------------|-2---2-2-2-2---2-2-|------------------|-2---2---2-2-2-|--

-|------------------|-3---3-3-3-3---3-3-|------------------|-3---3-x-3-3-3-|--

-|-5----5-5---5-5-5-|-2---2-2-2-4---4-4-|-5----5-5---5-5-5-|-2---2-x-4-4-4-|--

-|-5----5-5---5-5-5-|-0---0-0-0-4---4-4-|-5----5-5---5-5-5-|-0---0-x-4-4-4-|--

-|-3----3-3---3-3-3-|-----------2---2-2-|-3----3-3---3-3-3-|---------2-2-2-|--

-|------------------|-------------------|------------------|---------------|--

 

 

-|------|-3----2----|-0---|-3----2----|-0---|-3----2----|-0---|-3--2-|-0----|-

-|------|-3----3----|-3---|-3----3----|-3---|-3----3----|-3---|-3--3-|-3----|-

-|-5----|-2----2----|-2---|-2----2----|-2---|-2----2----|-2---|-2--2-|-2----|-

-|-5----|-0----0----|-0---|-0----0----|-0---|-0----0----|-0---|-0--0-|-0----|-

-|-3----|-----------|-----|-----------|-----|-----------|-----|------|------|-

-|------|-----------|-----|-----------|-----|-----------|-----|------|------|-

2nd Chorus, guitar 2(w/wah) (wah off)

 

-|--|--|--|--|--|--|--|--|-0h2p0---------0-------3--0-|-----------------------

-|--|--|--|--|--|--|--|--|-------3---------3----------|-----------------------

-|--|--|--|--|--|--|--|--|---------2---------2--------|-----------------------

-|--|--|--|--|--|--|--|--|-0-----------0-------0------|-----------------------

-|--|--|--|--|--|--|--|--|----------------------------|-----------------------

-|--|--|--|--|--|--|--|--|----------------------------|-----------------------

3rd Verse, guitar 1 Play 6x

 

-|-0h2p0--------0---0h2p0-----|-2--2-2-2--2--2-2-2--|-------------------------

-|-------3--------3-------3---|-3--3-3-3--3--3-3-3--|-------------------------

-|---------2--2-------------2-|-2--2-2-2--2--2-2-2--|-------------------------

-|----------------------------|-0--0-0-0--0--0-0-0--|-------------------------

-|----------------------------|---------------------|-------------------------

-|----------------------------|---------------------|-------------------------

with distortion

 

-|--|-------------|-------------|-3vvvvvvvvvvvvvvv-|-3-------------------|----

-|--|-------------|-------------|-3vvvvvvvvvvvvvvv-|-3-------------------|----

-|--|----7vvvvvvvv|vvvvvvvvvvvv-|------------------|---------------------|----

-|--|-------------|-------------|------------------|----x-0-0-0-0--0h5p0-|----

-|--|-------------|-------------|------------------|---------------------|----

-|--|-------------|-------------|------------------|---------------------|----

3rd Verse, guitar 2

 

-|------3-3p2--|------------2--3\|\2vvvvvvvvv----|------------------|-------|-

-|------3------|--------3---3--5\|\3vvvvvvvvv-3\-|------------------|-------|-

-|-------------|--------2--------|---------------|------------------|-------|-

-|-0-----------|-----------------|---------------|-0------0--0-0-0--|-12^vvv|-

-|-------------|-0---------------|---------------|------------------|-------|-

-|-------------|-----------------|---------------|------------------|-------|-

 

 

-|--------------------|---------------------|-3--3-3-3-3-2--2-2-2-2-|---------

-|--------------------|---------------------|-3--3-3-3-3-3--3-3-3-3-|---------

-|--------------------|----------0--0-0-0-0-|-2--2-2-2-2-2--2-2-2-2-|---------

-|-0--0-0-0--0--0-0-0-|-0--0-0--------------|-0----------0----------|---------

-|--------------------|---------------------|-----------------------|---------

-|--------------------|---------------------|-----------------------|---------

 

 

-|-0--0-0-0----0--0-|-3----3--2------|-0----|-3----2----|-0-------|-----------

-|-3--3-3-3----3--3-|-3----3--3------|-3----|-3----3----|-3-------|-----------

-|-2--2-2-2----2--2-|-2----2--2------|-2----|-2----2----|-2-------|-----------

-|-0--0-0-0---------|-0-------0------|-0----|-0----0----|-0-------|-----------

-|------------------|----------------|------|-----------|---------|-----------

-|------------------|----------------|------|-----------|---------|-----------

3rd Chorus, guitar 1--8x

 

-|------------------|----------------|-3---3-3-3-2---2-2-2-|-0-0-0-0-0-0-0--|-

-|------------------|----------------|-3---3-3-3-3---3-3-3-|-3-3-3-3-3-3-3--|-

-|-7---7-7--4---4---|-5--------5-5---|-2---2-2-2-2---2-2-2-|-2-2-2-2-2-2-2--|-

-|-7---7-7--4---4-0-|-5--------5-5-0-|-0---0-0-0-0---0-0-0-|-0-0-0-0-0-0-0--|-

-|-5---5-5--2---2-0-|-3--------3-3-0-|---------------------|----------------|-

-|------------------|----------------|---------------------|----------------|-

3rd Chorus, guitar 2 play 8x Outro, guitar 1(w/wah)

 

-|-3------2------|-0------0------|-3------2------|-0------|-------------------

-|-3------3------|-3------3------|-3------3------|-3------|-------------------

-|-2------2------|-2------2------|-2------2------|-2------|-------------------

-|-0------0------|-0-------------|-0------0------|-0------|-------------------

-|---------------|---------------|---------------|--------|-------------------

-|---------------|---------------|---------------|--------|-------------------

Out

 

-|-------------------|--------------------|------------------|-------------|--

-|-------------------|--------------------|------------------|-------------|--

-|-7----7-7--4---4-4-|-5---5-5-5-5--5-5-5-|-7---7-7--4---4-4-|-5-5-5-5-5-5-|--

-|-7----7-7--4---4-4-|-5---5-5-5-5--5-5-5-|-7---7-7--4---4-4-|-5-5-5-5-5-5-|--

-|-5----5-5--2---2-2-|-3---3-3-3-3--3-3-3-|-5---5-5--2---2-2-|-3-3-3-3-3-3-|--

-|-------------------|--------------------|------------------|-------------|--

Outro, guitar 2

 

-|-----------------------|-------------------|-2-------|-------|-2-----|----|-

-|-----------------------|-------------------|-3---3---|-1-----|-3--3--|-1--|-

-|-7---7-x-7-7-4---4-4-4-|-5---5-5-5-5---5-5-|-2---2---|-0-----|-2--2--|-0--|-

-|-7---7-x-7-7-4---4-4-4-|-5---5-5-5-5---5-5-|-0---4---|-2-----|-0--4--|-2--|-

-|-5---5-x-5-5-2---2-2-2-|-3---3-3-3-3---3-3-|-----2---|-3---0-|----2--|-3--|-

-|-----------------------|-------------------|---------|-------|-------|----|-

Repeat, fade

 

 

 

 

Return to my to my Pearl Jam tabs page

The Tablature is Copyright its respective owners.

Sign Up For My Newsletter
Subscribe | Unsubscribe

Site Map | Disclaimer | Privacy Policy | Media Kit | Submissions/Corrections

Website © 2000-2014 mattsmusicpage.com. All rights reserved.

Legal & DMCA: Matt's Music Page has been providing lyrics and tabs in a legal way, paying royalties each year to a few organizations. Then, all lyrics and tabs were removed from the site. Now, there's a new owner to the site, which purchased it August 26, 2014, and he is in negotiation to obtain licensing from BMI at the moment. If you have a specific DMCA request -- please do not hesitate to contact me via the contact button on top. I will do my very best to keep this site fully legal.

Get our toolbar!