Your One-Stop Source For
Music Lyrics
Bass and Guitar Tabs
and More...
Music Lyrics Bass and Guitar Tabs

 

The Tabs Are Below

Learn To Read Tab
Chords Handbook
Corrections & Additions
Get Official Tab
Pearl Jam tabs @ 911Tabs

 

Author/Artist: Mike McCready

Title: Red Mosquito

Album: No Code

Transcribed by: Evan Cowan with additions by Mike Mabie

Email: icowan@marin.k12.ca.us

 

The 9 /10 slides at the biginning are approx.

He slides back and fourth from about 9.75 to 10.25.

Use your ear to get the right pitch.

 

-|----------------------------------------------------|-----------------------

-|----------------------------------------------------|-----------------------

-|-10\9----9/10\9/10\9/10\9/10\9/10\9/10\9/10---------|-----------------------

-|---------------------------------------------12vvvv-|-----------------------

-|----------------------------------------------------|-----------------------

-|----------------------------------------------------|-----------------------

Intro with slide------------------------------------

 

-|---------------------------|------------------------|-----------------------

-|---------------------------|------------------------|-----------------------

-|------10-12-10h12-10----10-|-10b----10-12/14-10-12\-|-----------------------

-|10h12----------------12----|-----12-----------------|-----------------------

-|---------------------------|------------------------|-----------------------

-|---------------------------|------------------------|-----------------------

----slide---

 

-|----------10-------------------------|--------------|-----------------------

-|-------10----13-10-------------------|--------------|-----------------------

-|-12b14-------------12b14r12p10----10-|-12b14-10-----|-----------------------

-|-------------------------------12----|----------12\-|-----------------------

-|-------------------------------------|--------------|-----------------------

-|-------------------------------------|--------------|-----------------------

 

 

-|-------------------------------------|--------------------------------------

-|-------------------------------------|--------------------------------------

-|-------------------------------------|--------------------------------------

-|-------------------------------------|--------------------------------------

-|-8/10\9/10\9/10\9/10----------10-----|--------------------------------------

-|---------------------13\10/13----10\-|--------------------------------------

----------wih slide------------------

 

-|--------------------------------------10b12r10vvvvvvv\-|--------------------

-|-------------------------------------------------------|--------------------

-|-------------10h12-12b14-12-10h12-10-------------------|--------------------

-|-------10h12-------------------------------------------|--------------------

-|-10/12-------------------------------------------------|--------------------

-|-------------------------------------------------------|--------------------

 

 

-|----------------------------------------------------------|-----------------

-|----------------------------------------------------------|-----------------

-|-12vvvvvvv\10----------13-12-10----10h12-10---------------|-----------------

-|--------------12vv-\------------12-----------12-10-12vvv\-|-----------------

-|----------------------------------------------------------|-----------------

-|----------------------------------------------------------|-----------------

----with slide------ second solo

 

-|----------------|-----------------------------------------------------------

-|----------------|-----------------------------------------------------------

-|-10/9/5vvvv-----|-----------------------------------------------------------

-|----------------|-----------------------------------------------------------

-|----------------|-----------------------------------------------------------

-|----------------|-----------------------------------------------------------

bridge with slide

 

-|------------------------------------------------------------|---------------

-|------------------------------------------------------------|---------------

-|-12vvvvv-12-12-12-10----10----12\-0-12\-0-12\-0-12\-0-10----|---------------

-|---------------------12----12----------------------------12-|---------------

-|------------------------------------------------------------|---------------

-|------------------------------------------------------------|---------------

------third solo with slide---------------------------------

 

-|---------------------------------------------------------------------|------

-|---------18----18/20--20vv20vv20vv20vv20vv20-------------------------|------

-|-/19vvvv----19-------------------------------------10-12-10----------|------

-|---------------------------------------------10h12----------12-10-12-|------

-|---------------------------------------------------------------------|------

-|---------------------------------------------------------------------|------

--------------------slide-------------------

 

-|-------------------|--------------------------|-----------------------------

-|-------------------|--------------------------|-----------------------------

-|-------10-12-10vv\-|-10\9\5vvvv---10\9/12vvvv-|-----------------------------

-|-10h12-------------|--------------------------|-----------------------------

-|-------------------|--------------------------|-----------------------------

-|-------------------|--------------------------|-----------------------------

----bridge with slide----

 

-|-------------------|-------------|----------------|-------------------------

-|-------------------|-------------|-18----18-------|-------------------------

-|-12\10----10-------|-----17/19vv-|----19----19vvv-|-------------------------

-|-------12----12vvv-|-/19---------|----------------|-------------------------

-|-------------------|-------------|----------------|-------------------------

-|-------------------|-------------|----------------|-------------------------

----outro solo with slide-------------------------

 

-|----------10---------------------------------------------|------------------

-|-------10----13p10h13------------------------------------|------------------

-|-12b14----------------12p10--14-10b----------------------|------------------

-|---------------------------12-------12-10----------------|------------------

-|------------------------------------------12-11-10-11-12-|------------------

-|---------------------------------------------------------|------------------

 

 

-|---------------------------------------10-------------------------10----|---

-|------------------------------------10----13-10----------------10----10-|---

-|------------------------------12b14-------------12-10-12-12b14----------|---

-|-10----10-12-10--10-12-10--12-------------------------------------------|---

-|----12------------------------------------------------------------------|---

-|------------------------------------------------------------------------|---

 

 

-|--------------------------------|----------10-------------------|-----------

-|-----------------10/13/15vv-15\-|-------10----13-10-------------|-----------

-|-12\-0-12\0-12vv----------------|-12b14-------------12-10h12-10-|-----------

-|--------------------------------|-------------------------------|-----------

-|--------------------------------|-------------------------------|-----------

-|--------------------------------|-------------------------------|-----------

------------slide---------------

 

-|-------------------------|--------------------------------------------------

-|-------------10/13/15vvv-|--------------------------------------------------

-|-------10/12-------------|--------------------------------------------------

-|-10/12-------------------|--------------------------------------------------

-|-------------------------|--------------------------------------------------

-|-------------------------|--------------------------------------------------

--use slide and pick all notes--- Whew! Over and out

 

 

 

Return to my to my Pearl Jam tabs page

The Tablature is Copyright its respective owners.

Sign Up For My Newsletter
Subscribe | Unsubscribe

Site Map | Disclaimer | Privacy Policy | Media Kit | Submissions/Corrections

Website © 2000-2014 mattsmusicpage.com. All rights reserved.

Legal & DMCA: Matt's Music Page has been providing lyrics and tabs in a legal way, paying royalties each year to a few organizations. Then, all lyrics and tabs were removed from the site. Now, there's a new owner to the site, which purchased it August 26, 2014, and he is in negotiation to obtain licensing from BMI at the moment. If you have a specific DMCA request -- please do not hesitate to contact me via the contact button on top. I will do my very best to keep this site fully legal.

Get our toolbar!