Your One-Stop Source For
Music Lyrics
Bass and Guitar Tabs
and More...
Music Lyrics Bass and Guitar Tabs

 

The Tabs Are Below

Learn To Read Tab
Chords Handbook
Corrections & Additions
Get Official Tab
Pearl Jam tabs @ 911Tabs

 

Author/Artist: Pearl Jam

Title: Rats

Album: Vs.

Transcribed by: Evan Cowan

Email: icowan@marin.k12.ca.us

 

It's very hard to hear what stone is doing in the verse, what i've tabbed

is a guess.

 

-|----------------------|------------------------------|----------------------

-|----------------------|------------------------------|----------------------

-|----------------------|------------------------------|----------------------

-|----------------------|----5\--x-x-x-x-x-3\--x-x-2\--|----------------------

-|----------------------|----5\--x-x-x-x-x-3\--x-x-2\--|----------------------

-|----------------------|-3\---------------------------|----------------------

Intro (Bass and Drums) Verse, G1

 

-|-----------------------|--------------------------|-----------------|-------

-|-----------------------|--------------------------|-----------------|-------

-|-----------------------|--------------------------|-----------------|-------

-|-x-x-5\--x-3-3-3--x-2--|-x--5\-----------------2\-|-5\--x--x--5--5--|-------

-|-x-x-5\--x-3-3-3--x-2--|-x--5\-/5\--x-----3--x-2\-|-5\--x--x--5--5--|-------

-|-----------------------|--------------1-1-1--x----|-----------------|-------

 

 

-|------------------------------------|---------------------------------------

-|------------------------------------|---------------------------------------

-|-12\----/9---\-----/12--\---/9---\--|---------------------------------------

-|-12\----/9---\-----/12--\---/9---\--|---------------------------------------

-|------------------------------------|---------------------------------------

-|------------------------------------|---------------------------------------

Verse, G2 (w/ slide) 2x

 

-|-------------------------------|-----------------------|-------------|------

-|-------------------------------|-----------------------|-------------|------

-|-2--2---4-4--5--5-5-5-5-5-5-5--|-14--14\-14--14\--14\--|--14\--------|------

-|-2--2---4-4--5--5-5-5-5-5-5-5--|-----------------------|-----\-------|------

-|-0--0---2-2--3--3-3-3-3-3-3-3--|-----------------------|-------------|------

-|-------------------------------|-----------------------|-------------|------

Chorus, G1 4x G2 (w/ slide) 4x

 

-|-----------------------------------|---------------------|------------------

-|-----------------------------------|---------------------|------------------

-|-----2b3r2p0---0-------------------|---------------------|------------------

-|-2-----------2----3--x-x-2--x-x-5--|-5\--x-x--3-3--x-2\--|------------------

-|-2----------------3--x-x-2--x-x-5--|-5\--x-x--3-3--x-2\--|------------------

-|-----------------------------------|---------------------|------------------

Verse, G1 2x

 

-|----------------|------------------------------------|----------------------

-|----------------|------------------------------------|----------------------

-|----------------|-12\----/9---\-----/12--\---/9---\--|----------------------

-|-5\---5-5---5\--|-12\----/9---\-----/12--\---/9---\--|----------------------

-|-5\---5-5---5\--|------------------------------------|----------------------

-|----------------|------------------------------------|----------------------

Verse, G2 2x

 

-|-------------------------------|----------------------|---------|-----------

-|-------------------------------|----------------------|---------|-----------

-|-2--2---4-4--5--5-5-5-5-5-5-5--|-14--14\-14--14\-14\--|-14\-----|-----------

-|-2--2---4-4--5--5-5-5-5-5-5-5--|----------------------|---------|-----------

-|-0--0---2-2--3--3-3-3-3-3-3-3--|----------------------|---------|-----------

-|-------------------------------|----------------------|---------|-----------

Chorus, G1 4x G2 (w/ slide) 4x

 

-|--------------|------------------------10-12-b14r12p10-12\--0-12-12-0--|----

-|-5--5---------|-12--12p10----------------------------------------------|----

-|-7--7---------|-----------12-12--9-12----------------------------------|----

-|-6--6---------|--------------------------------------------------------|----

-|-7--7---------|--------------------------------------------------------|----

-|--------------|--------------------------------------------------------|----

Solo rhythm 8x Solo, Stone

 

-|--------12----------------------12----------------------------------------|-

-|-15b17-----15-12-15-12-15-15b17----15-12-15h17p15-12h15p12----------------|-

-|-----------------------------------------------------------12h14p12----12\|-

-|--------------------------------------------------------------------14----|-

-|--------------------------------------------------------------------------|-

-|--------------------------------------------------------------------------|-

 

 

-|---------------------|-------------------------------------------15------|--

-|-x----12--14---------|----------------12h15p12-15-17p15p12-15/17----17---|--

-|-x----12--14-----12\-|-11/12p11-12/14------------------------------------|--

-|---14---------14-----|---------------------------------------------------|--

-|---------------------|---------------------------------------------------|--

-|---------------------|---------------------------------------------------|--

 

 

-|-15-----------|-17-15-12----12-15--17-15p12----12---|-----------------------

-|----17-15-17--|----------15-----------------15------|-----------------------

-|--------------|-------------------------------------|-----------------------

-|--------------|-------------------------------------|-----------------------

-|--------------|-------------------------------------|-----------------------

-|--------------|-------------------------------------|-----------------------

 

 

-|-12-15-17--17b19--17b19--17b19vvv\--|---------------------------------------

-|------------------------------------|---------------------------------------

-|------------------------------------|---------------------------------------

-|------------------------------------|---------------------------------------

-|------------------------------------|---------------------------------------

-|------------------------------------|---------------------------------------

 

 

-|------------------------------|---------------------|-----------------------

-|------------------------------|---------------------|-----------------------

-|-2--2--4-4--5--5-5-5-5-5-5-5--|-2--2--4-4--5--5-5---|-----------------------

-|-2--2--4-4--5--5-5-5-5-5-5-5--|-2--2--4-4--5--5-5---|-----------------------

-|-0--0--2-2--3--3-3-3-3-3-3-3--|-0--0--2-2--3--3-3---|-----------------------

-|------------------------------|---------------------|-----------------------

Chorus, G1 3x

 

-|---------------------------|------|-----------------------------------------

-|---------------------------|------|-----------------------------------------

-|-14--14\-14--14--14\--14\--|-14---|-----------------------------------------

-|---------------------------|------|-----------------------------------------

-|---------------------------|------|-----------------------------------------

-|---------------------------|------|-----------------------------------------

Chorus, G2 4x

 

-|------------------------------|----------------------------------|----------

-|------------------------------|----------------------------------|----------

-|-2--2--4-4--5--5-5-5-5-5-5-5--|-14--14--14--14--14--14--14--14---|----------

-|-2--2--4-4--5--5-5-5-5-5-5-5--|---14--14--14--14--14--14--14--14-|----------

-|-0--0--2-2--3--3-3-3-3-3-3-3--|----------------------------------|----------

-|------------------------------|----------------------------------|----------

G1 3x G2 (w/ slide) 3.5x

 

-|---------------------------------|-|----------------------------------------

-|---------------------------------|-|----------------------------------------

-|-2-2-4-4-5-5-5-0-5\3-3-3-3-3-3-3-|-|----------------------------------------

-|-2-2-4-4-5-5-5-0-5\3-3-3-3-3-3-3-|-|----------------------------------------

-|-0-0-2-2-3-3-3-0-3\1-1-1-1-1-1-1-|-|----------------------------------------

-|---------------------------------|-|----------------------------------------

 

 

-|--------------------------------------------------|-------------------------

-|--------------------------------------------------|-------------------------

-|-5-5-5-5-5-5-5-5----------------------------------|-------------------------

-|-5-5-5-5-5-5-5-5-5-5-5-5-5-5-5-5-5-5-5-5-5-5-5-5--|-------------------------

-|-3-3-3-3-3-3-3-3-5-5-5-5-5-5-5-5-5-5-5-5-5-5-5-5--|-------------------------

-|-----------------3-3-3-3-3-3-3-3-3-3-3-3-3-3-3-3--|-------------------------

 

 

-|------------------------------------------------------------------|---------

-|------------------------------------------------------------------|---------

-|-3-3-3-3-3-3-3-3-5-5-5-5-5-5-5-5----------------------------------|---------

-|-3-3-3-3-3-3-3-3-5-5-5-5-5-5-5-5-5-5-5-5-5-5-5-5-5-5-5-5-5-5-5-5--|---------

-|-1-1-1-1-1-1-1-1-3-3-3-3-3-3-3-3-5-5-5-5-5-5-5-5-5-5-5-5-5-5-5-5--|---------

-|---------------------------------3-3-3-3-3-3-3-3-3-3-3-3-3-3-3-3--|---------

Outro, G1, Play till end

 

-|-------------------------------------------|--------------------------------

-|-------------------------------------------|--------------------------------

-|-/12----12----12-------12-------12----12\--|--------------------------------

-|-----12----12----12-12----12-12----12------|--------------------------------

-|-------------------------------------------|--------------------------------

-|-------------------------------------------|--------------------------------

Outro, G2 (w/ slide)

 

-|--------------------------------------|-------------------------------------

-|--------------------------------------|-------------------------------------

-|-/12-/17-\-12-12\--/12--12--12\--12\--|-------------------------------------

-|-/12-/17-\-12-12\--/12--12--12\--12\--|-------------------------------------

-|--------------------------------------|-------------------------------------

-|--------------------------------------|-------------------------------------

 

 

-|-------------------------|----|------15--15--/-x-\----------------|---------

-|-------------------------|----|------15--15--/-x-\-\--------------|---------

-|-17--\--12--/-/--15\-----|----|-12vv---------------\-\------------|---------

-|-17--\--12--/-/--15\--\--|----|----------------------\------------|---------

-|----------------------\--|----|-----------------------------------|---------

-|-------------------------|----|-----------------------------------|---------

grad. slide slide up to pickups

 

-|-----------------------|----|-----------------------------|-----------------

-|-----------------------|----|-----------------------------|-----------------

-|-/12--12\---/12-vvvv-\-|----|-/12--\--12vv-\--/12-\--12\--|-----------------

-|-/12--12\---/12-vvvv-\-|----|-/12--\--12vv-\--/12-\--12\--|-----------------

-|-----------------------|----|-----------------------------|-----------------

-|-----------------------|----|-----------------------------|-----------------

 

 

-|------------------------------------------------|------------|--------------

-|-4-3-4-3---6-5-6-5---1-0-1-0-1-0--0-1-0-1-0-----|------------|--------------

-|------------------------------------------------|--12-\------|--------------

-|------------------------------------------------|--12-\-\----|--------------

-|------------------------------------------------|-------\----|--------------

-|------------------------------------------------|------------|--------------

G3 G2 fade out

 

 

 

Return to my to my Pearl Jam tabs page

The Tablature is Copyright its respective owners.

Sign Up For My Newsletter
Subscribe | Unsubscribe

Site Map | Disclaimer | Privacy Policy | Media Kit | Submissions/Corrections

Website © 2000-2014 mattsmusicpage.com. All rights reserved.

Legal & DMCA: Matt's Music Page has been providing lyrics and tabs in a legal way, paying royalties each year to a few organizations. Then, all lyrics and tabs were removed from the site. Now, there's a new owner to the site, which purchased it August 26, 2014, and he is in negotiation to obtain licensing from BMI at the moment. If you have a specific DMCA request -- please do not hesitate to contact me via the contact button on top. I will do my very best to keep this site fully legal.

Get our toolbar!

 

® Elvis Presley Figure with Bars & Vinyl Record Stage
$23.99
® Elvis Presley Figure with Bars & Vinyl Record Stage picture


THE LONGINES SYMPHONETTE "SENTIMENTAL JOURNEY" VINTAGE VINYL ALBUM RECORD BOWL
$19.99
 THE LONGINES SYMPHONETTE


African Ghana Medley Vinyl Phono Record Beads (8mm) Ghana
$15.0
African Ghana Medley Vinyl Phono Record Beads (8mm)  Ghana picture


African Yellow Vinyl Phono Record Beads (6mm) Ghana
$12.0
African Yellow Vinyl Phono Record Beads (6mm)  Ghana picture


African Vintage Vinyl Phono Record Beads (7mm - Set of 4) Ghana
$69.0
African Vintage Vinyl Phono Record Beads (7mm - Set of 4)  Ghana picture