Your One-Stop Source For
Music Lyrics
Bass and Guitar Tabs
and More...
Music Lyrics Bass and Guitar Tabs

 

The Tabs Are Below

Learn To Read Tab
Chords Handbook
Corrections & Additions
Get Official Tab
Pearl Jam tabs @ 911Tabs

Author/Artist: Pearl Jam

Title: Pry, To

Album: Vitalogy

Transcribed by: Chris Wilson

Email: yokel@zip.com.au

Updated 03/21/99

 

-|-------------------------|---------------------|---------------------|------

-|-------------------------|---------------------|---------------------|------

-|------0-1-2-x-x-x-6-7-6--|--0-1-2-x-x-x-7-5-0--|--0-1-2-x-x-x-6-7-6--|------

-|-------------------------|---------------------|---------------------|------

-|--x-x--------------------|---------------------|---------------------|------

-|--x-x--------------------|---------------------|---------------------|------

Intro Gtr. 1

 

-|-------------------------|---------------------|----------------------------

-|-------------------------|---------------------|----------------------------

-|--x-x-0-1-2-x-x-x-7-5-0--|--0-1-2-x-x-x-6-7-6--|----------------------------

-|-------------------------|---------------------|----------------------------

-|-------------------------|---------------------|----------------------------

-|-------------------------|---------------------|----------------------------

 

 

-|--8-8--|--x-x-x--|--8-8-8--|--x-x-x-x-x--|--8-8-8-8--|----------------------

-|--8-8--|--x-x-x--|--8-8-8--|--x-x-x-x-x--|--8-8-8-8--|----------------------

-|--8-8--|--x-x-x--|--8-8-8--|--x-x-x-x-x--|--8-8-8-8--|----------------------

-|-------|---------|---------|-------------|-----------|----------------------

-|-------|---------|---------|-------------|-----------|----------------------

-|-------|---------|---------|-------------|-----------|----------------------

Gtr. 2 Repeat Whole Line

 

-|------------------------------------8-8-8--|--------------------------------

-|------------------------------------8-8-8--|--------------------------------

-|-------------------5-------------5--8-8-8--|--------------------------------

-|--x-x-x--x-x-x-5h7---7--x-x--5h7-----------|--------------------------------

-|--x-x-x--x-x-x----------x-x----------------|--------------------------------

-|--x-x-x--x-x-x----------x-x----------------|--------------------------------

Middle Part Gtr. 1 Repeat

 

-|---------|------------------------------------------------------------------

-|---------|------------------------------------------------------------------

-|---------|------------------------------------------------------------------

-|---x-x---|------------------------------------------------------------------

-|---x-x---|------------------------------------------------------------------

-|---x-x---|------------------------------------------------------------------

Gtr. 2 Strum Funky Rhythm

 

-|--------------------|-------------------------------------------------------

-|--10-10-10-9-8-0-0--|-------------------------------------------------------

-|--------------------|-------------------------------------------------------

-|--------------------|-------------------------------------------------------

-|--------------------|-------------------------------------------------------

-|--------------------|-------------------------------------------------------

Outro Gtr. 1 Repeat

 

-|------------------------------|-------------------------------------------|-

-|------------------------------|----------------------15b17r15-------------|-

-|------------------------------|-------------------------------16p14----14-|-

-|--14----14-17-14-13\12--------|--12h14-14-14-17-14-14---------------14----|-

-|-----17----------------12-12--|-------------------------------------------|-

-|------------------------------|-------------------------------------------|-

Gtr. 2 7x 8th Time

 

 

 

Return to my to my Pearl Jam tabs page

The Tablature is Copyright its respective owners.

Sign Up For My Newsletter
Subscribe | Unsubscribe

Site Map | Disclaimer | Privacy Policy | Media Kit | Submissions/Corrections

Website © 2000-2014 mattsmusicpage.com. All rights reserved.

Get our toolbar!