Your One-Stop Source For
Music Lyrics
Bass and Guitar Tabs
and More...
Music Lyrics Bass and Guitar Tabs

 

The Tabs Are Below

Learn To Read Tab
Chords Handbook
Corrections & Additions
Get Official Tab
Pearl Jam tabs @ 911Tabs

 

Author/Artist: Pearl Jam

Title: Once

Album: Ten

Transcribed by: Evan Cowan

Email: icowan@marin.k12.ca.us

Updated 03/21/99

 

-|-----------------------------|-------------------|--|--|-10-x-x-x-x-x-|-----

-|-----------------------------|-------------------|--|--|--------------|-----

-|--3--3------3-3--3-------3---|-3--3-----3---3--3-|--|--|--------------|-----

-|-------4--4--------4--4----4-|-------4----4------|--|--|--------------|-----

-|-----------------------------|-------------------|--|--|--------------|-----

-|-----------------------------|-------------------|--|--|--------------|-----

(Master/Slave Intro)

 

-|-5--5-5-5-5--5-5-5--5-5-5-5-5-5-5--5-5-5-5--5-5-5-5-5-5-5-5-5--5--5-------|-

-|-8--8-8-8-6--6-6-6--6-6-6-6-6-6-5--5-5-6-6--8-8-6-6-6-6-6-6-6--6--6-------|-

-|-7--7-7-7-7--7-7-7--7-7-7-7-7-7-7--7-7-7-7--7-7-7-7-7-7-7-7-7--7--7-------|-

-|-0--0-0-0-0--0-0-0--0-0-0-0-0-0-0--0-0-0-0--0-0-0-0-0-0-0-0-0--0--0-------|-

-|--------------------------------------------------------------------5\3/5-|-

-|--------------------------------------------------------------------------|-

Intro

 

-|-------------------------------|--------------------------|-----------------

-|-------------------------------|--------------------------|-----------------

-|-------------------------------|--------------------------|-----------------

-|-5h7--7--7h8p7-8/10-8p7-8p7-5--|-5h7-7-7h8p7-8/10-8p7-8-x-|-----------------

-|-0----0--0-----0----0---0---0--|-0---0-0-----0----0---0---|-----------------

-|-------------------------------|--------------------------|-----------------

 

 

-|------------------------------|----------------------------|----------------

-|------------------------------|----------------------------|----------------

-|------------------------------|--------------------5-5-----|----------------

-|-5h7--7--7h8p7-8/10-8p7-8p7-5-|-7-7--7--7-7---7--7-----7-7-|----------------

-|-0----0--0-----0----0---0---0-|----------------------------|----------------

-|------------------------------|----------------------------|----------------

 

 

-|--------------------|------------------------------|------------------------

-|--------------------|------------------------------|------------------------

-|-----------------9\-|-----------------------9\-----|------------------------

-|-5h7p5h8-7h8p7------|-5h7p5h8-7h8p7-x-x-x-7----x-x-|------------------------

-|-0-------0----------|-0-------0-----------0--------|------------------------

-|--------------------|------------------------------|------------------------

Verse

 

-|------------------------------|------------------------------|--------------

-|------------------------------|------------------------------|--------------

-|-----------------------9\-----|------------------------------|--------------

-|-5h7p5h8-7h8p7-x-x-x-x----x-x-|-5h7p5h8-7h8p7-x-x-x-x--------|--------------

-|-0-------0--------------------|-0-------0-------------7\-x-x-|--------------

-|------------------------------|------------------------------|--------------

5 times

 

-|----------------------|-------------------------|----------------------|----

-|----------------------|-------------------------|----------------------|----

-|----------------------|-------------------------|----------------------|----

-|-7----7h8p7h8p7h8-x-x-|-7---7h8p7h8p7h8p7h8p7h8-|-7----7h8p7h8p7h8p7h8-|----

-|-0----0---------------|-0---0-------------------|-0----0---------------|----

-|----------------------|-------------------------|----------------------|----

Pre-Chorus, G.1.

 

-|-------------|--------|------------|---|-----------------|------------------

-|-------------|--------|------------|---|-----------------|------------------

-|-------------|--------|-----/12----|---|-----------------|------------------

-|-8-----8-8-0-|-7------|-7----------|---|-8-------8-8-0---|------------------

-|-8-----8-8-0-|-0------|-0----------|---|-8-------8-8-0---|------------------

-|-6-----6-6---|--------|------------|---|-6-------6-6-----|------------------

Pre-chorus, G.2.

 

-|----------------|----------------|---------------|------------------------|-

-|-8--8-8-8--6--6-|-6--6-6-6--5--6-|-8--8-8-8--6-6-|-6--6-6--5--6-----------|-

-|-7--7-7-7--7--7-|-7--7-7-7--7--7-|-7--7-7-7--7-7-|-7--7-7--7--7-----------|-

-|-5--5-5-5--7--7-|-8--8-8-8--8--8-|-5--5-5-5--7-7-|-8--8-8--8--8--x-x-x-x--|-

-|----------------|----------------|---------------|------------------------|-

-|----------------|----------------|---------------|------------------------|-

Chorus Play 3x

 

-|-------------------|------------------------------|-------------------------

-|-------------------|------------------------------|-------------------------

-|----------------9\-|-----------------------9\-----|-------------------------

-|-5h7p5h8-7h8p7-----|-5h7p5h8-7h8p5-------7----x-x-|-------------------------

-|-0-------0---------|-0-------0--------------------|-------------------------

-|-------------------|------------------------------|-------------------------

2nd Verse

 

-|------------------------------|-------------------------|-------------------

-|------------------------------|-------------------------|-------------------

-|-----------------------9\-----|-----------------------5-|-------------------

-|-5h7p5h8-7h8p5-x-x-x-x----x-x-|-5h7p5h8-7h8p7-x-x-----5-|-------------------

-|-0-------0--------------------|-------------------0-0---|-------------------

-|------------------------------|-------------------------|-------------------

 

 

-|------------------------------|------------------------------|--------------

-|------------------------------|------------------------------|--------------

-|-----------------------9\-----|------------------------------|--------------

-|-5h7p5h8-7h8p7-x-x-x-x--------|-5h7p5h8-7h8p7-x-x-x-x--------|--------------

-|-0-------0--------------------|-0-------0-------------7\-x-x-|--------------

-|------------------------------|------------------------------|--------------

3x

 

-|--------------------------|---------------|---------------------------------

-|--------------------------|---------------|---------------------------------

-|--------------------------|---------------|---------------------------------

-|--------------------------|---------------|---------------------------------

-|--------------------------|---------------|---------------------------------

-|--------------------------|---------------|---------------------------------

Pre-Chorus, same as before Chorus, same

 

-|-------------|-------------|-------------|-------------|------------|-------

-|-------------|-------------|-------------|-------------|------------|-------

-|-------------|-------------|-------------|-------------|------------|-------

-|-------------|-------------|-------------|-------------|------------|-------

-|-7--7--7--5--|-7--7--5--5--|-7--7--7--5--|-7--7--5--5--|-7---7---7--|-------

-|-5--5--5--3--|-5--5--3--3--|-5--5--5--3--|-5--5--3--3--|-5---5---5--|-------

Solo, guitar 1

 

-|---------------|------------|-------------|---------------------------------

-|---------------|------------|-------------|---------------------------------

-|---------------|------------|-------------|---------------------------------

-|---------------|------------|-------------|---------------------------------

-|-7---7-5--5--5-|-7---7---7--|-8--8-8--8-8-|---------------------------------

-|-5---5-3--3--3-|-5---5---5--|-6--6-6--6-6-|---------------------------------

 

 

-|-5-------|----------------------------|--------------------------|----------

-|---8-5-8-|-8b10vvvvvvv-8b10-8-5-------|--------------------------|----------

-|---------|----------------------7p5---|-7b9r7p5---5h7-5vvv-5\4---|----------

-|---------|--------------------------7-|---------7--------------5-|----------

-|---------|----------------------------|--------------------------|----------

-|---------|----------------------------|--------------------------|----------

Solo, guitar 2

 

-|-------5-----------------------------------|-----------------------x-x|-----

-|-----5---8p5-------------------------------|--------------------------|-----

-|-7b9---------7b9r7p5---7-5-----------------|--------------------------|-----

-|---------------------7-----7-5-------------|--------------------------|-----

-|-------------------------------7-5b6-5-3-5-|-5b6-5-3---3-3-3-3vvv/----|-----

-|-------------------------------------------|---------5----------------|-----

 

 

-|-20b22------20b22--20b22-|-20b22r20-17----17----------------------|---------

-|-------------------------|-------------20----20b22--20\---------0-|---------

-|-------------------------|------------------------------0-0-5\--0-|---------

-|-------------------------|------------------------------0-0-5\--0-|---------

-|-------------------------|----------------------------------------|---------

-|-------------------------|----------------------------------------|---------

 

 

-|--------------8-------8----8----8-10-10b12r10p8-10----------------|---------

-|-----8---8h10---10vv----10---10-----------------------------------|---------

-|-/9----9----------------------------------------------------------|---------

-|------------------------------------------------------------------|---------

-|------------------------------------------------------------------|---------

-|------------------------------------------------------------------|---------

 

 

-|-------------|-------------------|---------------------|------------------|-

-|-------------|-------------------|---------------------|-8--8-8-8-8-8-8-8-|-

-|-------------|-----------------0-|---------------------|-7--7-7-7-7-7-7-7-|-

-|-5--3p0------|-5--3p0------------|-5-5-5-5-3-0---------|-5--5-5-5-5-5-5-5-|-

-|--------4--3-|--------4--3-5/7---|-------------4--3--5-|------------------|-

-|-------------|-------------------|---------------------|------------------|-

Bridge, guitar 1 2x 3x

 

-|---------------------|------------------------|---------------------|-------

-|-8-8-8-8-6p0---------|-8-8-8-8-6p0------------|-8-8-8-8-6p0---------|-------

-|-7-7-7-7-----6--5--0-|-7-7-7-7-----6--5-----0-|-7-7-7-7-----6--5--0-|-------

-|-------------------0-|------------------------|-------------------0-|-------

-|---------------------|------------------5/7---|---------------------|-------

-|---------------------|------------------------|---------------------|-------

Bridge, guitar 2

 

-|------------------------|------------------------------|--------------------

-|-8-8-8-8-6p0------------|-------8p6p0-8/10--10p8-------|--------------------

-|-7-7-7-7-----6--5-----0-|-7-7-7-------------------x--x-|--------------------

-|------------------------|------------------------------|--------------------

-|------------------5/7---|------------------------------|--------------------

-|------------------------|------------------------------|--------------------

 

 

-|--------------------------------|-----------------------------------|-------

-|-------8p6p0-8/10-10-10p8-------|-------8p6p0-8/10--10p8------------|-------

-|-7-7-7---------------------x--x-|-7-7-7------------------0-5^-0-5^--|-------

-|--------------------------------|-----------------------------------|-------

-|--------------------------------|-----------------------------------|-------

-|--------------------------------|-----------------------------------|-------

 

 

-|--------------------------|--------------------------|----------------------

-|-8--8-8--8-8--8-8--8-8--8-|--------------------------|----------------------

-|-7--7-7--7-7--7-7--7-7--7-|--------------------------|----------------------

-|-5--5-5--5-5--5-5--5-5--5-|--------------------------|----------------------

-|--------------------------|--------------------------|----------------------

-|--------------------------|--------------------------|----------------------

Chorus, same as before

 

-|----------------|-0--0-0---0-0-0-0-0-0-0-|------------------|---------------

-|-8--8-8---------|-6--6-6-6h8-8-8-8-8-8-8-|-8--8-8-8/10--8---|---------------

-|-7--7-7-6--5--0-|-7--7-7-7-7-7-7-7-7-7-7-|-7--7-7---------0-|---------------

-|-5--5-5-------0-|-0--0-0-0-0-0-0-0-0-0-0-|-5--5-5---------0-|---------------

-|----------------|------------------------|------------------|---------------

-|----------------|------------------------|------------------|---------------

Outro|----------------6x-----------------| 7x

 

-|-0--0--0---0-|----------|---------------------------------------------------

-|-6--6--5---5-|-8--------|---------------------------------------------------

-|-7--7--7---7-|-7--------|---------------------------------------------------

-|-0--0--0---0-|-5--------|---------------------------------------------------

-|-------------|-5--------|---------------------------------------------------

-|-------------|----------|---------------------------------------------------

 

 

 

Return to my to my Pearl Jam tabs page

The Tablature is Copyright its respective owners.

Sign Up For My Newsletter
Subscribe | Unsubscribe

Site Map | Disclaimer | Privacy Policy | Media Kit | Submissions/Corrections

Website © 2000-2014 mattsmusicpage.com. All rights reserved.

Legal & DMCA: Matt's Music Page has been providing lyrics and tabs in a legal way, paying royalties each year to a few organizations. Then, all lyrics and tabs were removed from the site. Now, there's a new owner to the site, which purchased it August 26, 2014, and he is in negotiation to obtain licensing from BMI at the moment. If you have a specific DMCA request -- please do not hesitate to contact me via the contact button on top. I will do my very best to keep this site fully legal.

Get our toolbar!

 

VINTAGE SORRENTO MUSIC JEWELRY BOX
$45.0
VINTAGE SORRENTO MUSIC JEWELRY BOX picture


VINTAGE LACQUERED MUSIC BOX JAPAN
$25.99
VINTAGE LACQUERED MUSIC BOX JAPAN picture


Vintage Kehlsteinhaus Bavaria Germany Colorscope Cow Bell View Master Music Box
$8.99
Vintage Kehlsteinhaus Bavaria Germany Colorscope Cow Bell View Master Music Box picture


VINTAGE SCHMIDT Signed Collectible Musical Turning Clown
$9.99
VINTAGE  SCHMIDT Signed Collectible Musical Turning Clown picture


Vintage - Linen - Postcard - Stage - Radio City Music Hall - New York City
$3.75
Vintage - Linen - Postcard - Stage - Radio City Music Hall - New York City   picture