Your One-Stop Source For
Music Lyrics
Bass and Guitar Tabs
and More...
Music Lyrics Bass and Guitar Tabs

 

The Tabs Are Below

Learn To Read Tab
Chords Handbook
Corrections & Additions
Get Official Tab
Pearl Jam tabs @ 911Tabs

 

Author/Artist: Pearl Jam

Title: Oceans

Album: Ten

Transcribed by: Evan Cowan

Email: icowan@marin.k12.ca.us

Updated 03/21/99

 

Stone--Open-D--DADF#AD ( Low-->High )

Mike--Standard

More of mike's stuff will be added later

 

-|--0-------11--11--|--0-------11--11--10-|-----------------------------------

-|--0-------11--11--|--0-------11--11--10-|-----------------------------------

-|--0-------12--11--|--0-------12--11--10-|-----------------------------------

-|--0-------11--11--|--0-------11--11--10-|-----------------------------------

-|--0-------11--11--|--0-------11--11--10-|-----------------------------------

-|--0-------11--11--|--0-------11--11--10-|-----------------------------------

Intro, G1 3x

 

-|-10--10--10--10--10-10--10--10-10-10--10--10--10--10--10--10--10-10-10-10-|-

-|-10--10--10--10--10-10--10--10-10-10--10--10--10--10--10--10--10-10-10-10-|-

-|-12--13--12--10--10-10--12--12-13-12--10--10--12--12--13--12--10-10-12-13-|-

-|-10--10--10--10--10-10--10--10-10-10--10--10--10--10--10--10--10-10-10-10-|-

-|-10--10--10--10--10-10--10--10-10-10--10--10--10--10--10--10--10-10-10-10-|-

-|-10--10--10--10--10-10--10--10-10-10--10--10--10--10--10--10--10-10-10-10-|-

Chorus

 

-|-10--10-10-|--0----0----0----0---10-10-10-10-10-10-10---0----0----0----0--|-

-|-10--10-10-|--0----0----0----0---10-10-10-10-10-10-10---0----0----0----0--|-

-|-12--10-10-|-12---14---17---12---12-12-12-12-12-12-12--12---14---17---12--|-

-|-10--10-10-|--0----0----0----0---10-10-10-10-10-10-10---0----0----0----0--|-

-|-10--10-10-|-12---14---17---12---10-10-10-10-10-10-10--12---14---17---12--|-

-|-10--10-10-|--0----0----0----0---10-10-10-10-10-10-10---0----0----0----0--|-

Bridge, G1(not sure here)

 

-|-10-10-10-10-10-10-10--|-----------------------------|----------------------

-|-10-10-10-10-10-10-10--|-----------------------------|----------------------

-|-12-12-12-12-12-12-12--|--11-11-11-11-11-11-11-12-\--|----------------------

-|-10-10-10-10-10-10-10--|---x--x--x--x--x--x--x--x----|----------------------

-|-10-10-10-10-10-10-10--|---9--9--9--9--9--9--9-10-\--|----------------------

-|-10-10-10-10-10-10-10--|-----------------------------|----------------------

With Fill 1 Fill 1(G2)

 

-|-10--10--10--10-10-10--10--10-10-10-10-10-10-10-10-10-10-10-10--10-10-10--|-

-|-10--10--10--10-10-10--10--10-10-10-10-10-10-10-10-10-10-10-10--10-10-10--|-

-|-12--13--12--10-10-10--12--12-13-12-12-10-10-12-12-12-12-12-12--12-12-13--|-

-|-10--10--10--10-10-10--10--10-10-10-10-10-10-10-10-10-10-10-10--10-10-10--|-

-|-10--10--10--10-10-10--10--10-10-10-10-10-10-10-10-10-10-10-10--10-10-10--|-

-|-10--10--10--10-10-10--10--10-10-10-10-10-10-10-10-10-10-10-10--10-10-10--|-

G1

 

-|-10-10--10-10-10--10-10-10-10--|--8---8--8---8---8---8--8---8--8--|---------

-|-10-10--10-10-10--10-10-10-10--|--8---8--8---8---8---8--8---8--8--|---------

-|-12-12--10-10-10--12-12-13-12--|--9---9--9---9---9---9--9---9--9--|---------

-|-10-10--10-10-10--10-10-10-10--|-10--10-10--10--10--10-10--10-10--|---------

-|-10-10--10-10-10--10-10-10-10--|-10--10-10--10--10--10-10--10-10--|---------

-|-10-10--10-10-10--10-10-10-10--|--8---8--8---8---8---8--8---8--8--|---------

G2 (strum for 4 bars) 4x

 

-|--0-------11--11--|--0-------11--11--10--|----------------------------------

-|--0-------11--11--|--0-------11--11--10--|----------------------------------

-|--0-------12--11--|--0-------12--11--10--|----------------------------------

-|--0-------11--11--|--0-------11--11--10--|----------------------------------

-|--0-------11--11--|--0-------11--11--10--|----------------------------------

-|--0-------11--11--|--0-------11--11--10--|----------------------------------

Verse, G1 3x

 

-|-10--10--10--10--10-10--10--10-10-10--10--10--10--10--10--10--10-10-10-10-|-

-|-10--10--10--10--10-10--10--10-10-10--10--10--10--10--10--10--10-10-10-10-|-

-|-12--13--12--10--10-10--12--12-13-12--10--10--12--12--13--12--10-10-12-13-|-

-|-10--10--10--10--10-10--10--10-10-10--10--10--10--10--10--10--10-10-10-10-|-

-|-10--10--10--10--10-10--10--10-10-10--10--10--10--10--10--10--10-10-10-10-|-

-|-10--10--10--10--10-10--10--10-10-10--10--10--10--10--10--10--10-10-10-10-|-

Chorus, G1

 

-|-10--10-10-|--0----0----0----0---10-10-10-10-10-10-10--|--------------------

-|-10--10-10-|--0----0----0----0---10-10-10-10-10-10-10--|--------------------

-|-12--10-10-|-12---14---17---12---12-12-12-12-12-12-12--|--------------------

-|-10--10-10-|--0----0----0----0---10-10-10-10-10-10-10--|--------------------

-|-10--10-10-|-12---14---17---12---10-10-10-10-10-10-10--|--------------------

-|-10--10-10-|--0----0----0----0---10-10-10-10-10-10-10--|--------------------

Bridge, G1(not sure here)(w/G2) 3x

 

-|--0----0----0---0-----11--11----0-----11--11----0---|-----------------------

-|--0----0----0---0-----11--11----0-----11--11----0---|-----------------------

-|-12---14---17---0-----12--11----0-----12--11----0---|-----------------------

-|--0----0----0---0-----11--11----0-----11--11----0---|-----------------------

-|-12---14---17---0-----11--11----0-----11--11----0---|-----------------------

-|--0----0----0---0-----11--11----0-----11--11----0---|-----------------------

End

 

-|--------------------------------------------------------------------------|-

-|-7---7-7---7-----9---9-9---9----------12-12----12-7--7-----7--7-7-7-7-7-7-|-

-|-------------------------------------------------------7------------------|-

-|---7-----7---7/9---9-----9---9/12--12-------12-----------7----------------|-

-|--------------------------------------------------------------------------|-

-|--------------------------------------------------------------------------|-

Bridge,G2 3x

 

-|---------------------------------------------------10--|--------------------

-|-7---7-7---7-----9---9-9---9----------12-12----12--10--|--------------------

-|---------------------------------------------------11--|--------------------

-|---7-----7---7/9---9-----9---9/12--12-------12-----12--|--------------------

-|---------------------------------------------------12--|--------------------

-|---------------------------------------------------10--|--------------------

 

 

 

Return to my to my Pearl Jam tabs page

The Tablature is Copyright its respective owners.

Sign Up For My Newsletter
Subscribe | Unsubscribe

Site Map | Disclaimer | Privacy Policy | Media Kit | Submissions/Corrections

Website © 2000-2014 mattsmusicpage.com. All rights reserved.

Legal & DMCA: Matt's Music Page has been providing lyrics and tabs in a legal way, paying royalties each year to a few organizations. Then, all lyrics and tabs were removed from the site. Now, there's a new owner to the site, which purchased it August 26, 2014, and he is in negotiation to obtain licensing from BMI at the moment. If you have a specific DMCA request -- please do not hesitate to contact me via the contact button on top. I will do my very best to keep this site fully legal.

Get our toolbar!