Your One-Stop Source For
Music Lyrics
Bass and Guitar Tabs
and More...
Music Lyrics Bass and Guitar Tabs

 

The Tabs Are Below

Learn To Read Tab
Chords Handbook
Corrections & Additions
Get Official Tab
Pearl Jam tabs @ 911Tabs

 

Author/Artist: Pearl Jam

Title: Nothingman

Album: Vitalogy

Transcribed by Mike Mabie and Evan Cowan with help

from Chris Wilson and RyanB...special thanks to Travis

for coming up with the tuning.

All Guitars capo 5th fret...all notes relative to capo

(0 represents capoed 5th fret)

Tune your high E string down to a C (EADGBC)

Or if you're lazy like me, just mute it the whole song

(06/29/99)

 

 

-|-0---0--0---0-0--0---0-0--0---0-0--0---0-0--0---0-0---0--0---0-|------------

-|-1---1--1---1-1--1---1-1--1---1-1--1---1-1--1---1-1---1--1-1-1-|------------

-|-0---0--0-0-0-0--0-0-0-2--2-2-2-0--0-0-0-2--2-2-2-0---0--0-0-0-|------------

-|-2---2----2---2----2---2----2---0----0---2----2---3---3----3---|------------

-|-3---------------------0--------2--------0--------3------------|------------

-|--------------------------------3----------------*1------------|------------

G1 Intro *Fret with thumb

 

-|-0---0--0---0-0--0---0-0--0---0-0--0---0-0--0---0-0------0---0-|------------

-|-1---1--1---1-1--1---1-1--1---1-1--1---1-1--1---1-1------1-1-1-|------------

-|-0---0--0-0-0-0--0-0-0-2--2-2-2-0--0-0-0-2--2-2-2-0------0-0-0-|------------

-|-2---2----2---2----2---2----2---0----0---2----2---3--------3---|------------

-|-3---------------------0--------2--------0--------3------------|------------

-|--------------------------------3-----------------1------------|------------

 

 

-|-0--0--0---0-0--0---0-0--0---0-0--0---0-0--0---0-0---0---0-|----------------

-|-1--1--1---1-1--1---1-1--1---1-1--1---1-1--1---1-1---1-1-1-|----------------

-|-0--0--0-0-0-0--0-0-0-2--2-2-2-0--0-0-0-2--2-2-2-0---0-0-0-|----------------

-|-2--2----2---2----2---2----2---0----0---2----2---3-----3---|----------------

-|-3--------------------0--------2--------0--------3---------|----------------

-|-------------------------------3-----------------1---------|----------------

G1 Verse 3x simile

 

-|-0--0--0---0-0--0---0-0--0---0-0--0---0-0--0---0-0---0--0---0-0---0---0-0-|-

-|-1--1--1---1-1--1---1-1--1---1-1--1---1-1--1---1-1---1--1-1-1-1---1-1-1-1-|-

-|-0--0--0-0-0-0--0-0-0-2--2-2-2-0--0-0-0-2--2-2-2-0---0--0-0-0-0---0-0-0-2-|-

-|-2--2----2---2----2---2----2---0----0---2----2---3---3----3---3-----3---2-|-

-|-3--------------------0--------2--------0--------3---3--------3---------0-|-

-|-------------------------------3-----------------1---1--------1-----------|-

 

 

-|-0---0--|-0------------0--------0--------0--------0--------0-------------|--

-|-1---1--|-1------------1--------1--------1--------1--------1-------------|--

-|-2-2-2--|-0------------0--------2--------0--------2--------0-------------|--

-|---2----|-2------------2--------2--------0--------2--------3-------------|--

-|--------|-3---------------------0--------2--------0--------3-------------|--

-|--------|--------------------------------3-----------------1-------------|--

G2 Verse Trem Bar 4x

 

-|-0------0---0---0--0---0---0--0--0---0-0---0---0---0--0--0---0--|-----------

-|-1------1---1-1-1--1---1-1-1--1--1---1-1---1---1-1-1--1--1-1-1--|-----------

-|-0------0---0-0-0--0---0-0-0--0--0-0-0-0---0---0-0-0--0--0-0-0--|-----------

-|-3------3-----3----3-----3----0----0---3---3-----3----3----3----|-----------

-|-3------3----------3----------2--------3---3----------3---------|-----------

-|-1------1----------1----------3--------1------------------------|-----------

G1 Bridge

 

-|-0----------------------------0--0---0-0------------------------|-----------

-|-1----------------------------1--1---1-1------------------------|-----------

-|-0----------------------------0--0-0-0-0------------------------|-----------

-|-3----------------------------0----0---3------------------------|-----------

-|-3----------------------------2--------3------------------------|-----------

-|-1----------------------------3--------1------------------------|-----------

G2 Bridge

 

-|-0---0---0--0-----0---0---0--0---0---0--0--0---0-|--------------------------

-|-1---1-1-1--1-----1---1-1-1--1---1-1-1--1--1---1-|--------------------------

-|-0---0-0-0--0-----0---0-0-0--0---0-0-0--0--0-0-0-|--------------------------

-|-2-----2----3-----3-----3----3-----3----0----0---|--------------------------

-|-2----------3-----3----------3----------2--------|--------------------------

-|-0----------1----------------1----------3--------|--------------------------

G1

 

-|-0---0---0--0----------------0----------0--------|--------------------------

-|-1---1-1-1--1----------------1----------1--------|--------------------------

-|-0---0-0-0--0----------------0----------0--------|--------------------------

-|-2-----2----3----------------3----------0--------|--------------------------

-|-2----------3----------------3----------2--------|--------------------------

-|-0----------1----------------1----------3--------|--------------------------

G2

 

-|-0-----0---0-0---0---0--0---0---0--0-----0---0---0---0---0---0---0-|--------

-|-1-----1-1-1-1---1-1-1--1---1-1-1--1-----1---1---1---1---1---1---1-|--------

-|-0-----0-0-0-0---0-0-0--0---0-0-0--0-----0---0-0-0---0---0---0-0-0-|--------

-|-2-------2---2-----2----3-----3----0-----0-----0-----0---0-----0---|--------

-|-3-----------3----------3----------2-----2-----------2---2---------|--------

-|------------------------1----------3-----3-----------3---3---------|--------

G1 Chorus

 

-|-0-----0---0-0---0---0--0---0---0--0---|-0---0---0-0---0---0-0---0---0--|---

-|-1-----1-1-1-1---1-1-1--1---1-1-1--1---|-1---1---1-1---1---1-1---1---1--|---

-|-0-----0-0-0-0---0-0-0--0---0-0-0--0---|-0---0-0-0-0---0-0-0-0---0-0-0--|---

-|-2-------2---2-----2----3-----3----0---|-0-----0---0-----0---0-----0----|---

-|-3-----------3----------3----------2---|-2---------2---------2----------|---

-|------------------------1----------3---|-3---------3---------3----------|---

G1 2nd time only

 

-|-0-----------0----------0---0---0--0------------------------------------|---

-|-1-----------1----------1--*1-1*1--1------------------------------------|---

-|-0-----------0----------0---0-0-0--0------------------------------------|---

-|-2-----------2----------3----*3----0------------------------------------|---

-|-3-----------3----------3----------2------------------------------------|---

-|------------------------1----------3------------------------------------|---

G2 Chorus *not always played 2x

 

-|--------------------------------------------------------------------------|-

-|--------------------------------------------------------------------------|-

-|--------------------------------------------------------------------------|-

-|--------------------------------------------------------------------------|-

-|--------------------------------------------------------------------------|-

-|--------------------------------------------------------------------------|-

G1 and G2 Repeat Verses, Bridge, and Chorus again

 

-|-0--0---0---0---0---0---0--0---0---0--0---0--0---0----0-------|-------------

-|-1--1---1---1---1---1---1--1---1-1-1--1---1--1---1----1-------|-------------

-|-2--2---2-2-2---2---2-2-2--0---0-0-0--0---0--0-0-0----0-------|-------------

-|-2--2-----2-----2-----2----3-----3----0---0----0------0-------|-------------

-|-0--------------0----------3----------2---2-----------2-------|-------------

-|---------------------------1----------3---3-----------3-------|-------------

G1 Interlude

 

-|------------0--0-----------0----------0----------0---0-----------0-------|--

-|------------1--1-----------1----------1----------0---0-----------0-------|--

-|------------2--2-----------2----------0----------x---x-----------x-------|--

-|------------2--2-----------2----------3----------10--10----------10------|--

-|------------0--------------0----------3----------10--10----------10------|--

-|--------------------------------------1----------8-----------------------|--

G2

 

-|-0---0--0--0---0--0----0--0---0--0---0---0--0--0---0--0----0----0----0----|-

-|-1---1--1--1-1-1--1----1--1---1--1---1---1--1--1-1-1--1----1----1----1----|-

-|-0-0-0--0--0-0-0--2----2--2-2-2--2---2-2-2--0--0-0-0--0----0----0-0--0----|-

-|---0----3----3----2----2----2----2-----2----3----3----0----0------0-------|-

-|--------3---------0----0--------------------3---------2----2--------------|-

-|--------1-----------------------------------1---------3----3--------------|-

G1

 

-|--------0---------0----0---------0----------0---------0----0--------------|-

-|--------1---------1----1---------1----------1---------1----1--------------|-

-|--------0---------2----2---------2----------0---------0----0--------------|-

-|--------3---------2----2---------2----------3---------0----0--------------|-

-|--------3---------0----0--------------------3---------2----2--------------|-

-|--------1-----------------------------------1---------3----3--------------|-

G2

 

-|-0----0---0---0--0---0--0----0---0---0----0---0---0---0---0---0---0----0--|-

-|-1----1---1---1--1---1--1----1---1-1-1----1---1-1-1---1---1-1-1---1----1--|-

-|-0----0-0-0---2--0-2-0--0----0---0-0-0----0---0-0-0---0---0-0-0---0----0--|-

-|-0------0-----2----2----3----3-----3------3-----3-----3-----3-----3----3--|-

-|-2------------0---------3----3------------3-----------3-----------3----3--|-

-|-3----------------------1----------------------------------------------1--|-

G1

 

-|-0------------0---------0-------------------------------------------------|-

-|-1------------1---------1-------------------------------------------------|-

-|-0------------2---------0-------------------------------------------------|-

-|-0------------2---------3-------------------------------------------------|-

-|-2------------0---------3-------------------------------------------------|-

-|-3----------------------1-------------------------------------------------|-

G2

 

-|-0---0---0--0---0--0----0---0--0----0----0---0--0---0---0---0---0---0-|-----

-|-1-1-1---1--1-1-1--1----1-1-1--1----1----1-1-1--1---1-1-1---1---1---1-|-----

-|-0-0-0---0--0-0-0--0----0-0-0--0----0----0-0-0--0---0-0-0---0---0-0-0-|-----

-|---3-----3----3----2------2----3----3------3----3-----3-----0-----0---|-----

-|---------3---------2-----------3----3-----------3-----------2---------|-----

-|-------------------0-----------1----------------------------3---------|-----

G1

 

-|-------------------------------0------------------------------------------|-

-|-------------------------------1------------------------------------------|-

-|-------------------------------0------------------------------------------|-

-|-------------------------------3------------------------------------------|-

-|-------------------------------3------------------------------------------|-

-|-------------------0-----------1------------------------------------------|-

G2

 

-|-0-----0-----0----0---0---0---0---0---0---0---0---0---0----0---0---0--|-----

-|-1-----1-----1----1-1-1---1---1-1-1---1---1---1---1---1----1---1---1--|-----

-|-0-----0-----0----0-0-0---0---0-0-0---0---0---0-0-0---0----0---0-0-0--|-----

-|-2-----2-----2------2-----3-----3-----0---0-----0-----0----0-----0----|-----

-|-3-----3-----3------------3-----------2---2-----------2----2----------|-----

-|--------------------------1-----------3---3-----------3----3----------|-----

G1 Last Chorus

 

-|-0--0--0---0--0--0---0--0--0---0--0--0--0---0-0--0---0-0--0---0--|----------

-|-1--1--1-1-1--1--1-1-1--1--1-1-1--1--1--1---1-1--1---1-1--1---1--|----------

-|-0--0--0-0-0--0--0-0-0--0--0-0-0--0--0--0-0-0-0--0-0-0-0--0-0-0--|----------

-|-2--2----2----2----2----3----3----0--0----0---0----0---0----0----|----------

-|-3----------------------3---------2--2--------2--------2---------|----------

-|------------------------1---------3--3--------3--------3---------|----------

G1

 

-|-0-----0-----0----0---0---0---0---0---0---0---0---0---0-0---0---0--|--------

-|-1-----1-----1----1-1-1---1---1-1-1---1---1---1---1---1-1---1---1--|--------

-|-0-----0-----0----0-0-0---0---0-0-0---0---0---0---0-0-0-0---0-0-0--|--------

-|-2-----2-----2------2-----3-----3-----0---0---0-----0---0-----0----|--------

-|-3-----3-----3------------3-----------2---2---2---------2----------|--------

-|--------------------------1-----------3---3---3---------3----------|--------

G1

 

-|-0---0---0---0--0---0---0--0---0---0--0--------|----------------------------

-|-1---1---1-1-1--1---1-1-1--1---1-1-1--1--------|----------------------------

-|-0---0---0-0-0--0---0-0-0--0---0-0-0--0--------|----------------------------

-|-2---2-----2----2-----2----3-----3----0--------|----------------------------

-|-3-------------------------3----------2--------|----------------------------

-|---------------------------1----------3--------|----------------------------

G1

 

-|-0----0------0---0-----0-----0---0---0-----0---0----|---0-----|-------------

-|-1----1------1-1-1-----1-----1-1-1---1-----1-1-1----|---1-----|-------------

-|-0----0------0-0-0-----0-----0-0-0---0-----0-0-0----|---0-----|-------------

-|-2----2--------2-------2-------2-----3-------3------|---2-----|-------------

-|-3-----------------------------------3--------------|---3-----|-------------

-|-------------------------------------1--------------|---------|-------------

G1 Outro 3x End

 

-|--------|------------------------|----------------|------------------|------

-|--------|------------------------|----------------|------------------|------

-|--------|------------------------|----------------|------------------|------

-|-2------|--3----2-----0----------|---3---0---2----|--3---2---0-------|------

-|--------|------------------3-----|----------------|-------------3----|------

-|--------|------------------------|----------------|------------------|------

G2 Outro 2x End

 

 

Return to my to my Pearl Jam tabs page

The Tablature is Copyright its respective owners.

Sign Up For My Newsletter
Subscribe | Unsubscribe

Site Map | Disclaimer | Privacy Policy | Media Kit | Submissions/Corrections

Website © 2000-2014 mattsmusicpage.com. All rights reserved.

Legal & DMCA: Matt's Music Page has been providing lyrics and tabs in a legal way, paying royalties each year to a few organizations. Then, all lyrics and tabs were removed from the site. Now, there's a new owner to the site, which purchased it August 26, 2014, and he is in negotiation to obtain licensing from BMI at the moment. If you have a specific DMCA request -- please do not hesitate to contact me via the contact button on top. I will do my very best to keep this site fully legal.

Get our toolbar!