Your One-Stop Source For
Music Lyrics
Bass and Guitar Tabs
and More...
Music Lyrics Bass and Guitar Tabs

 

The Tabs Are Below

Learn To Read Tab
Chords Handbook
Corrections & Additions
Get Official Tab
Pearl Jam tabs @ 911Tabs

Author/Artist: Pearl Jam (Vedder/McCready/Gossard)

Title: Light Years

Album: Binaural

Transcribed by: Chris Wilson and Evan Cowan

Email: g_wilson@ihug.com.au (temporary)

 

Thanks To Mackey From The BBS For The Verse Chords.

 

-|--------------------------------------------------------------------------|-

-|--------------------------------------------------------------------------|-

-|----------------------------------------------------7-7--7----7-7----7-7--|-

-|---4--4----4-4--4---4--4----4-4--4---4--4----4----4-4-4--4----4-4----4-4--|-

-|-5----5-5--5-5--5-5-5--5-5--5-5--5-5-5--5-5--5-5--5-5-5--5-5--5-5--5-5-5--|-

-|--------------------------------------------------------------------------|-

Gtr 1 With Fill 1

 

-|----------------------------|-----------------------------------------------

-|----------------------------|-----------------------------------------------

-|--7-7--7-7--7-7-7-7-7-7-----|-----------------------------------------------

-|--4-4--4-4--4-4-4-4-4-4--0--|-----------------------------------------------

-|--5-5--5-5--5-5-5-5-5-5--0--|-----------------------------------------------

-|----------------------------|-----------------------------------------------

 

 

-|----------------------------------------------------------------------|-----

-|----------------------------------------------------------------------|-----

-|----------------------------------------------------------------------|-----

-|-------------12^---12^------12^-12^-12^-------12^------12^-12^--------|-----

-|----------------------------------------------------------------------|-----

-|----------------------------------------------------------------------|-----

Gtr.3

 

-|---------------------------|------------------------------------------------

-|---------------------------|------------------------------------------------

-|---------------------------|------------------------------------------------

-|--12^----12^---12^--12^\\--|------------------------------------------------

-|---------------------------|------------------------------------------------

-|---------------------------|------------------------------------------------

 

 

-|--0----------|--------------------------------------------------------------

-|----3--------|--------------------------------------------------------------

-|-------------|--------------------------------------------------------------

-|-------------|--------------------------------------------------------------

-|-------------|--------------------------------------------------------------

-|-------------|--------------------------------------------------------------

Fill 1 Gtr.2

 

-|-----2--2--2--0-----0--|---------------------0--|--0--------------------|---

-|-----3--3--3--3-------3|----3------3-----3---3--|--3--------------------|---

-|-----2--2--2-----0-----|0---0--0---0--0--0---0--|--0---6-6--6-6---6-----|---

-|-----0--0--0-----0-----|----0--0---0--0--0---0--|------3-3--3-----3-----|---

-|-----------------1-----|----1--1---3--3--3------|------4-4--4-----------|---

-|-----------------------|------------------------|-----------------------|---

Gtr.1 I've used hammers made out of wood, I have played games with pieces

 

-|-----2-----------0-----|-----------0------------|-----------------------|---

-|-----3-----------3-----|-----------3------------|-----------------------|---

-|-----2-----------0-----|-----------0------------|------6----------------|---

-|-----0-----------0-----|-----------0------------|------3----------------|---

-|-----------------1-----|-----------3------------|------4----------------|---

-|-----------------------|------------------------|-----------------------|---

Gtr.2

 

-|---------2----2-3-2--0-|-----------0------------|--------0-0--0--0------|---

-|---------3----3-3-3----3-----3--3----3-----3----|--3--3--3-3--3--3------|---

-|------6--2----2-2-2----|-0---0--0------0---0----|--0--0--0-0--0-------6-|---

-|------3--0----0-0-0----|-----0-------------0---0|--0--0--0-0----------3-|---

-|------4----------------|-----1-----------------3|--3--3--3-3----------4-|---

-|-----------------------|------------------------|-----------------------|---

Gtr.1 Of rules, I have deciphered tricks at the bar but now you're gone

 

-|---------2-------------|-----0-----------------0|-----------------------|---

-|---------3-------------|-----3-----------------3|-----------------------|---

-|---------2-------------|-----0-----------------0|---------------------6-|---

-|---------0-------------|-----0-----------------0|---------------------3-|---

-|-----------------------|-----1-----------------3|---------------------4-|---

-|-----------------------|------------------------|-----------------------|---

Gtr.2

 

-|-----------------------|-------2---2-2--------2-|---------------0--0----|---

-|-----------------------|----3--3---3-3-----3--3-|------------3--3--3-3--|---

-|-----6-6--6-6---6-6--6-|----2--0h2-2-0h2---2--2-|-0-0--0--0--0--0--0-0--|---

-|-----3-3--3-3---3-3--3-|-3--0--0---0-0---0-0--0-|-0-0--0--0--0--0--0----|---

-|-----4-4--------4-4--4-|-4----------------------|---1--------1--1--1----|---

-|-----------------------|------------------------|-----------------------|---

Gtr.1 I haven't figured out why, I've come out with riddles and jokes

 

-|-----------------------|----2-------------------|---0-------------------|---

-|-----------------------|----3-------------------|---3-------------------|---

-|-----------------------|----2-------------------|---0-------------------|---

-|-----------------------|----0-------------------|---0-------------------|---

-|-----------------------|------------------------|---1-------------------|---

-|-----------------------|------------------------|-----------------------|---

Gtr.2

 

-|--------0--------------|-----0------------------|----------2------------|---

-|-----3--3---------3-3--|-----3--3---------------|----------3------------|---

-|-----0--0--0--0---0-0--|-----0----0-6--6-6--6-6-|-6-6------2------------|---

-|-----0--0--0--0--------|-0---0------3--3-3--3-3-|-3-3--3---0------------|---

-|--------1--3--3--------|-3---3------4--4-4--4-4-|-4-4-------------------|---

-|-----------------------|------------------------|-----------------------|---

Gtr.1 About words I've figured out numbers and what they're for

 

-|-----------0-----------|------------------------|-----------2-----------|---

-|-----------3-----------|------------------------|-----------3-----------|---

-|-----------0-----------|------------6-----------|-----------2-----------|---

-|-----------0-----------|------------3-----------|-----------0-----------|---

-|-----------3-----------|------------4-----------|-----------------------|---

-|-----------------------|------------------------|-----------------------|---

Gtr.2

 

-|-----2------0------0---|------------------------|--------0-0----0-------|---

-|-----3--3---3---3--3---|--3--3----3-3-----3-3---|-3--3---3-3----3---3---|---

-|-----2--0h2-0h2-0--0-0-|--0--0----0-0-0---0-0---|-0--0---0-0--0-0---0---|---

-|-----0--0---0---0--0-0-|--0--0----0-0-0---0-0---|-0--0---0-0--0-0---0---|---

-|---------------------1-|--1--1----1-1-1---------|-3--3---3-3--3-3---3---|---

-|-----------------------|------------------------|-----------------------|---

Gtr.1 I've understood feelings and I've understood words but how could you

 

-|---------------------0-|------------------------|-0---------------------|---

-|---------------------3-|------------------------|-3---------------------|---

-|---------------------0-|------------------------|-0---------------------|---

-|---------------------0-|------------------------|-0---------------------|---

-|---------------------1-|------------------------|-3---------------------|---

-|-----------------------|------------------------|-----------------------|---

Gtr.2

 

-|-----------------------|------------------------|-----------------------|---

-|-----------------------|------------------------|-----------------------|---

-|-----6--6-6-------6-6-6|------------------------|-----------------------|---

-|-----3--3-3--3-3--3-3-3|------------------------|-----------------------|---

-|-----4--4-4--4-4--4-4-4|------------------------|-----------------------|---

-|-----------------------|------------------------|-----------------------|---

Gtr.1 Taken away

 

-|-----------------------|------------------------|-----------------------|---

-|-----------------------|------------------------|-----------------------|---

-|------------------6-6-6|------------------------|-----------------------|---

-|------------------3-3-3|------------------------|-----------------------|---

-|------------------4-4-4|------------------------|-----------------------|---

-|-----------------------|------------------------|-----------------------|---

Gtr.2

 

-|-----------------------|------------------------|----------------------|----

-|-----------------------|------------------------|----------------------|----

-|-x-x-6-6-6--7-6-6-6--7-|-9-6-x-x-6-6-7-6-6-6--7-|6-----7---7---7---7---|----

-|-x-x-7-7-7--7-7-7-7--7-|-7-7-x-x-7-7-7-7-7-7--7-|7-----0---0---0---0---|----

-|-x-x-5-5-5--5-5-5-5--5-|-5-5-x-x-5-5-5-5-5-5--5-|5---------------------|----

-|-----5-5-5--5-5-5-5--5-|-5-5-----5-5-5-5-5-5--5-|5-7-7---7---7---7-----|----

Gtr.1 And wherever you've gone and wherever we might go it don't

 

-|-----------------------|------------------------|-----------------------|---

-|-----7---8----7---8--8-|-7----7---8---7----8--8-|-----------------------|---

-|-----7---7----7---7--7-|-7----7---7---7----7--7-|-----7----7----7---7---|---

-|-----0---0----0---0--0-|-0----0---0---0----0--0-|-----0----0----0---0---|---

-|-----------------------|------------------------|-----x----x----x-------|---

-|-----------------------|------------------------|--7--7----7----7-------|---

Gtr.2

 

-|--------------------------------------------|-------------------------------

-|--------------------------------------------|-------------------------------

-|--------------------------------------------|-------------------------------

-|---------7----7-----------------------------|-------------------------------

-|-----7-7---------7-7-7-7-7-7-7-7-7----------|-------------------------------

-|-----5-5----5----5-5-5-5-5-5-5-5-5----------|-------------------------------

Gtr.1 Fair, today just disappeared

 

-|--------------5-----5------5------5---5-----|-------------------------------

-|---------5----5-----5------5------5---5-----|-------------------------------

-|---------7----7-----7------7------7---7-----|-------------------------------

-|---------7----7-----7------7----------------|-------------------------------

-|-----0-0-0--0-0---0-0------0----------------|-------------------------------

-|--------------------------------------------|-------------------------------

Gtr.2

 

-|-----2-3-2-0-----------|---------------2-3-2-0--|-----------------------|---

-|--3--3-3-3-3-3---------|---------------3-3-3-3-3|-----------------------|---

-|--2--2-2-2-2---0------0|----0---0---2--2-2-2----|0----------------------|---

-|--0--0-0-0-0--------0--|--0---0-----0--0-0-0----|---0-------------------|---

-|------------------1----|3-----------------------|---1-------------------|---

-|-----------------------|------------------------|-----------------------|---

Gtr.1

 

-|-----2-----------------|---------------2-3-2-0--|-----------------------|---

-|-------3---------------|-----------------------3|-----------------------|---

-|---------2-----------0-|----0-------------------|0----------------------|---

-|--0--------0--0----0---|--0---0-----0-----------|-----------------------|---

-|------------------1----|3-------3---------------|---1-------------------|---

-|-----------------------|------------------------|-----------------------|---

Gtr.2

 

-|---2-------------------|------------------------|-----------------------|---

-|---3--3--3-----5--5--5-|-0--5--5-5-5-5-5--5-5--5|-5-5-5--5-5-5----------|---

-|---2--2--2--0--6--6--6-|-6--6--7-7-7-7-7--7-6--9|-9-9-9--9-9-9----------|---

-|---0--------0--7-------|-7--7--7-7-7-7-7--7-7--7|-7-7-7--7-7-7----------|---

-|---------------0-------|----0--0---0-0----0-0---|-0-0----0-0-0----------|---

-|-----------------------|------------------------|-----------------------|---

Bridge Gtr.1

 

-|--2--------------------|-------0-0-0-0-0--0-----|-----------------------|---

-|--3--3--3-----2--2--2--|-0--2--3-3-3-3-3--3-2--5|-5-5-5--5-5-5----------|---

-|--2--2--2--0--2--2--2--|-2--2--2-2-2-2-2--2-2--2|-2-2-2--2-2-2----------|---

-|--0--------0--2--------|-2--2--2-2-2-2-2--2----2|-2-2-2--2-2-2----------|---

-|--------------0--------|-0--0--0-0-0-0-0-------0|-0-0-0--0-0-0----------|---

-|-----------------------|------------------------|-----------------------|---

Gtr.2

 

-|-------------7--5--5---|------------------------|-----------------------|---

-|-------8--7--5--5--7---|--5-5--5-5-5-5--4-4-4-4-|-4-4-4-4---------------|---

-|-------6--6--6--6--6---|--5-5--5-5-5-5--4-4-4-4-|-4-4-4-4---------------|---

-|--7-7--7--7--7---------|--5-5--5-5-5-5--4-4-4-4-|-4-4-4-4---------------|---

-|--0-0--0--0--0--------0|--3-3--3-3-3-3--2-2-2-2-|-2-2-2-2---------------|---

-|-----------------------|------------------------|-----------------------|---

Gtr.1

 

-|-------3--2--2--2--0--0|------------------------|-----------------------|---

-|-------2--2--2--2--2--2|--1-1--1-1-1-1--4-4-4-4-|-4-4-4-4---------------|---

-|-------2--2--2--2--2--2|--0-0--0-0-0-0--4-4-4-4-|-4-4-4-4---------------|---

-|--2-2--2--2--2--2--2--2|--2-2--2-2-2-2--4-4-4-4-|-4-4-4-4---------------|---

-|--0-0--0--0--0--0--0--0|--3-3--3-3-3-3--2-2-2-2-|-2-2-2-2---------------|---

-|-----------------------|------------------------|-----------------------|---

Gtr.2

 

-|-------------7--5--5---|------------------------|-----------------------|---

-|-------8--7--5--5--7---|--5-5--5-5-5-5--4-4-4-4-|-4-4-4-4---------------|---

-|-------6--6--6--6--6---|--5-5--5-5-5-5--4-4-4-4-|-4-4-4-4---------------|---

-|--7-7--7--7--7---------|--5-5--5-5-5-5--4-4-4-4-|-4-4-4-4---------------|---

-|--0-0--0--0--0--------0|--3-3--3-3-3-3--2-2-2-2-|-2-2-2-2---------------|---

-|-----------------------|------------------------|-----------------------|---

Gtr.1

 

-|-----------------------|------------------------|-----------------------|---

-|-----------------------|-----------8----7-------|-7---------------------|---

-|-----------------------|--------9-----------8---|------9-v-v-v-v---vvv--|---

-|-----------------------|-----10----------------9|-----------------------|---

-|-----------------------|------------------------|-----------------------|---

-|-----------------------|--8---------------------|-----------------------|---

Gtr.2

 

-|-------------7--5--5---|------------------------|-----------------------|---

-|-------8--7--5--5--7---|--5-5--5-5-5-5--4-4-4-4-|-4-4-4-4---------------|---

-|-------6--6--6--6--6---|--5-5--5-5-5-5--4-4-4-4-|-4-4-4-4---------------|---

-|--7-7--7--7--7---------|--5-5--5-5-5-5--4-4-4-4-|-4-4-4-4---------------|---

-|--0-0--0--0--0--------0|--3-3--3-3-3-3--2-2-2-2-|-2-2-2-2---------------|---

-|-----------------------|------------------------|-----------------------|---

Gtr.1

 

-|-----------------------|------------------------|-----------------------|---

-|-----------------------|-----------8----7-------|-----------------------|---

-|-9vv--9vvvvv-9vv-9vvv\-|---------9--------8--9b11-9b11r9p8--------------|---

-|-----------------------|-----10-----------------|-----------------------|---

-|-----------------------|------------------------|-----------------------|---

-|-----------------------|-/8---------------------|-----------------------|---

Gtr.2

 

-|-----------------------|------------------------|-----------------------|---

-|--5-5-5-5-5-5-5--4-4-4-|4-4-4-4-4---5-5-5-5-5--5|-5-5-5-5-5---5-5-5-5---|---

-|--5-5-5-5-5-5-5--4-4-4-|4-4-4-4-4---5-5-5-5-5--5|-5-5-5-5-5---5-5-5-5---|---

-|--5-5-5-5-5-5-5--4-4-4-|4-4-4-4-4---5-5-5-5-5--5|-5-5-5-5-5---5-5-5-5---|---

-|--3-3-3-3-3-3-3--2-2-2-|2-2-2-2-2---3-3-3-3-3--3|-3-3-3-3-3---3-3-3-3---|---

-|-----------------------|------------------------|-----------------------|---

Gtr.1

 

-|-----------------------|------------------------|---15----15-15-15-15---|---

-|--13-13-10-12-13-10b12r10p8-10---8--13-13-10-12-13--15b17-17-17-17-17v--|---

-|-----------------------|------7h9---------------|-----------------------|---

-|-----------------------|------------------------|-----------------------|---

-|-----------------------|------------------------|-----------------------|---

-|-----------------------|------------------------|-----------------------|---

Gtr.2 Hold Bend-------|

 

-|---------------------------|----------------------------------------------|-

-|---------------------------|----------------------------------------------|-

-|--12-12--11-11-11\5-5-5-5--|--5-5-5-9-9-5--5-5-5--5-9-9-5--5-5-5-5/7-7-7--|-

-|--x--x---x--x--x--x-x-x-x--|--x-x-x-x-x-x--x-x-x--x-x-x-x--x-x-x-x-x-x-x--|-

-|--10-10--9--9--9-\3-3-3-3--|--3-3-3/7-7\3--3-3-3--3/7-7\3--3-3-3-3/5-5-5--|-

-|---------------------------|----------------------------------------------|-

Gtr.2's Outro Octave Run 2x

 

-|--------------------------------------------------------------------------|-

-|--------------------------------------------------------------------------|-

-|--12-12--11-11-11-5-5--5-5-5--5---12-12-12-12--11-11-11-11-11-11-11-11-11-|-

-|--x--x---x--x--x--x-x--x-x-x--x---x--x--x--x---x--x--x--x--x--x--x--x--x--|-

-|--10-10--9--9--9--3-3--3-3-3--3---10-10-10-10--9--9--9--9--9--9--9--9--9--|-

-|--------------------------------------------------------------------------|-

 

 

-|------------------------------------|---------------------------------------

-|------------------------------------|---------------------------------------

-|--5-5-5--5/7--7-7-7-7-7--7/9-9-\-7--|---------------------------------------

-|--x-x-x--x-x--x-x-x-x-x--x-x-x---x--|---------------------------------------

-|--3-3-3--3/5--5-5-5-5-5--5/7-7-\-5--|---------------------------------------

-|------------------------------------|---------------------------------------

 

 

 

 

Return to my to my Pearl Jam tabs page

The Tablature is Copyright its respective owners.

Sign Up For My Newsletter
Subscribe | Unsubscribe

Site Map | Disclaimer | Privacy Policy | Media Kit | Submissions/Corrections

Website © 2000-2014 mattsmusicpage.com. All rights reserved.

Legal & DMCA: Matt's Music Page has been providing lyrics and tabs in a legal way, paying royalties each year to a few organizations. Then, all lyrics and tabs were removed from the site. Now, there's a new owner to the site, which purchased it August 26, 2014, and he is in negotiation to obtain licensing from BMI at the moment. If you have a specific DMCA request -- please do not hesitate to contact me via the contact button on top. I will do my very best to keep this site fully legal.

Get our toolbar!