Your One-Stop Source For
Music Lyrics
Bass and Guitar Tabs
and More...
Music Lyrics Bass and Guitar Tabs

 

The Tabs Are Below

Learn To Read Tab
Chords Handbook
Corrections & Additions
Get Official Tab
Pearl Jam tabs @ 911Tabs

 

Let Me Sleep

Pearl Jam

 

 

|--5--3h5p3---------------3--|

|------------5--(1/4)--3--3--| Riff A (play 2x)

|-------------------------0--|

|----------------------------|

|----------------------------|

|----------------------------|

 

 

Cold wind blows on the soles of my feet (with Riff A 6x)

Heaven knows nothing of me

I'm lost, nowhere to go

 

|--10--8h10p8--7-----7-----7--|--10--8h10p8--7-----7-----7--|

|-----------------8-----8-----|-----------------8-----8-----|

|-----------------0-----0-----|-----------------0-----0-----| Riff B

|-----------------------------|-----------------------------|

|-----------------------------|-----------------------------|

|-----------------------------|-----------------------------|

 

|--5--3h5p3--|

|------------|

|------------|

|------------|

|------------|

|------------|

 

 

D C D C

Oh, when I was a kid...oh, how magic it seemed

 

D C G

Oh, please let me sleep, it's Christmas time

 

(play riff A 2x)

 

Flowered winds was where I lived (with riff A 6x)

Thought you burned, not froze for your sins

Oh, I'm so tired, and cold

 

(play riff B)

 

D C D C

Oh, when I was a kid...oh, how magic it seemed

 

D C G

Oh, please let me sleep, it's Christmas time

 

|--5--3h5p3--------------|

|------------3--3--2--3--| Riff C (play 4x)

|---------------0--0--0--|

|------------------------|

|------------------------|

|------------------------|

 

D C D C

Oh...oh, when I was a kid...oh, how magic it seemed

 

D C G

Oh, please let me sleep, it's Christmas time

 

D C D C

Oh...oh, when I, if I was a kid...oh, how magic it seemed

 

D C G

Oh, please let me dream, it's Christmas time

 

(Repeat first bar of Riff B and fade)

 

 

Return to my to my Pearl Jam tabs page

The Tablature is Copyright its respective owners.

Sign Up For My Newsletter
Subscribe | Unsubscribe

Site Map | Disclaimer | Privacy Policy | Media Kit | Submissions/Corrections

Website © 2000-2014 mattsmusicpage.com. All rights reserved.

Legal & DMCA: Matt's Music Page has been providing lyrics and tabs in a legal way, paying royalties each year to a few organizations. Then, all lyrics and tabs were removed from the site. Now, there's a new owner to the site, which purchased it August 26, 2014, and he is in negotiation to obtain licensing from BMI at the moment. If you have a specific DMCA request -- please do not hesitate to contact me via the contact button on top. I will do my very best to keep this site fully legal.

Get our toolbar!

 

Starbucks You Are Here Coffee Mug/Cup KENTUCKY - Horses, Banjo, Blue, White
$19.99
Starbucks You Are Here Coffee Mug/Cup KENTUCKY - Horses, Banjo, Blue, White picture


KNOWLES ROCKWELL HERITAGE "THE BANJO PLAYER" FIRST EDITION 1989 PLATE COA
$5.99
KNOWLES ROCKWELL HERITAGE


Vintage Postcard 1981 Disney World Banjo Kings Main Street USA 1981 Postmark
$4.99
 Vintage Postcard 1981 Disney World Banjo Kings Main Street USA 1981 Postmark picture


Banjo Barometer With Thermometer Hygrometer 490mm
$84.76
Banjo Barometer With Thermometer Hygrometer 490mm picture


ANTIQUE JAPANESE NIPPON FIGURINE SET OF 3 WOMEN GEISHA PLAYING DRUM BANJO FAN
$24.0
ANTIQUE JAPANESE NIPPON FIGURINE SET OF 3 WOMEN GEISHA PLAYING DRUM BANJO FAN picture