Your One-Stop Source For
Music Lyrics
Bass and Guitar Tabs
and More...
Music Lyrics Bass and Guitar Tabs

 

The Tabs Are Below

Learn To Read Tab
Chords Handbook
Corrections & Additions
Get Official Tab
Pearl Jam tabs @ 911Tabs

 

Yellow Ledbetter

by Pearl Jam

 

Intro

 

E-------------------------------------------------------9-7-9-7-----7-7-7----7-7--5-5-7-5--7-5----------------------

B-------------------------------------------------------7-7-7-7-----7-7-7----7-7--5-5-5-5------5--------------------

G-------------------------9--------11<>9---------8--8-8-8-8-----8-8-8----8-8--6-6-6-6----------------------------

D-------------------------9-----------------------9------------------9-9-9----9-9--7-7-7-7----------------------------

A-------------9<>11<>9------------------------------------------------------------------------------------------------

E---0-------------------------------------------7------------------------------------------------------0------------------

 

E----14--12---------------------

B----14--12--14----------------

G------------------11------------

D---------------------------------

A---------------------------------

E-----------------------------0--- < this zero is first note repeat from beginning with slight variations

 

 

 

Verse And Chorus

 

3 Chords E, Cmaj7,Amaj7

 

E Cmaj7 Amaj

E--0---------------7-----------------5---------

B--0---------------7-----------------5---------

G--1---------------8-----------------6---------

D--2---------------9-----------------7---------

A--2---------------7-----------------5---------

E --0---------------7-----------------5---------

 

 

Outro (Same As Intro)

 

E-------------------------------------------------------9-7-9-7-----7-7-7----7-7--5-5-7-5--7-5----------------------

B-------------------------------------------------------7-7-7-7-----7-7-7----7-7--5-5-5-5------5--------------------

G-------------------------9--------11<>9---------8--8-8-8-8-----8-8-8----8-8--6-6-6-6----------------------------

D-------------------------9-----------------------9------------------9-9-9----9-9--7-7-7-7----------------------------

A-------------9<>11<>9------------------------------------------------------------------------------------------------

E---0-------------------------------------------7------------------------------------------------------0------------------

 

E----14--12-----------------

B----14--12--14------------

G------------------11--------

D-----------------------------

A-----------------------------

E------------------------------ fade out with minor variations.

 

 

I'm working on the Solo and Lyrics and I hope to have them soon.

 

pearljam60@aol.com

 

 

Return to my to my Pearl Jam tabs page

The Tablature is Copyright its respective owners.

Sign Up For My Newsletter
Subscribe | Unsubscribe

Site Map | Disclaimer | Privacy Policy | Media Kit | Submissions/Corrections

Website © 2000-2014 mattsmusicpage.com. All rights reserved.

Legal & DMCA: Matt's Music Page has been providing lyrics and tabs in a legal way, paying royalties each year to a few organizations. Then, all lyrics and tabs were removed from the site. Now, there's a new owner to the site, which purchased it August 26, 2014, and he is in negotiation to obtain licensing from BMI at the moment. If you have a specific DMCA request -- please do not hesitate to contact me via the contact button on top. I will do my very best to keep this site fully legal.

Get our toolbar!

 

VINTAGE SORRENTO MUSIC JEWELRY BOX
$45.0
VINTAGE SORRENTO MUSIC JEWELRY BOX picture


VINTAGE LACQUERED MUSIC BOX JAPAN
$25.99
VINTAGE LACQUERED MUSIC BOX JAPAN picture


Vintage Kehlsteinhaus Bavaria Germany Colorscope Cow Bell View Master Music Box
$8.99
Vintage Kehlsteinhaus Bavaria Germany Colorscope Cow Bell View Master Music Box picture


VINTAGE SCHMIDT Signed Collectible Musical Turning Clown
$9.99
VINTAGE  SCHMIDT Signed Collectible Musical Turning Clown picture


Vintage - Linen - Postcard - Stage - Radio City Music Hall - New York City
$3.75
Vintage - Linen - Postcard - Stage - Radio City Music Hall - New York City   picture