Your One-Stop Source For
Music Lyrics
Bass and Guitar Tabs
and More...
Music Lyrics Bass and Guitar Tabs

 

The Tabs Are Below

Learn To Read Tab
Chords Handbook
Corrections & Additions
Get Official Tab
Pearl Jam tabs @ 911Tabs

 

Author/Artist: Pearl Jam

Title: Last Exit

Album: Vitalogy

Transcribed by: Evan Cowan

Email: icowan@marin.k12.ca.us

 

(Last Updated-06/03/99)

 

A nice 5/4 song

 

 

-|---------------|------1-0----------1-0------------------|-------------------

-|-1------1------|-1----1-0----------1-0------------------|-------------------

-|-0--2---0-2----|-0----2-x--4--5-7--2-x--4-4-4-4-4-4-4-4-|-------------------

-|-2--0---2-0----|-2-0--3-2--4--5-7--3-2--4-4-4-4-4-4-4-4-|-------------------

-|-3--x---3-x----|-3-x-------2--3-5-------2-2-2-2-2-2-2-2-|-------------------

-|----2-----2----|---2------------------------------------|-------------------

Intro/verse,12x Chorus

 

-|-------------------------------------|--------------------------------------

-|-------------------------------------|--------------------------------------

-|--10-9--4-5-7--10-9--4--10-9--4-5-7--|--------------------------------------

-|-------------------------------------|--------------------------------------

-|-------------------------------------|--------------------------------------

-|-------------------------------------|--------------------------------------

Chorus G2

 

-|-1-0-------------|---------|------------|-----------------------|-----------

-|-1-0-------------|---------|-1-----1----|-----------------------|-----------

-|-2-x---4---5--7--|---------|-0--2--0-2--|-----------------------|-----------

-|-3-2---4---5--7--|-3--2----|-2--0--2-0--|-----------------------|-----------

-|-------2---3--5--|-3--2----|-3--x--3-x--|-----------------------|-----------

-|-----------------|-1--0----|----2----2--|-----------------------|-----------

With Fill 1 Fill 1 Verse 12x Chorus, same as above

 

-|---------------------|--------------------------------|---------------------

-|---------------------|-12--10--8--7--12--10--8--7--8--|---------------------

-|---------------------|-11---9--7--7--11---9--7--7--7--|---------------------

-|---------------------|--/---/--/--/---/---/--/--/--/--|---------------------

-|---------------------|--/---/--/--/---/---/--/--/--/--|---------------------

-|---------------------|--------------------------------|---------------------

Backwards guitar solo trem. pick

 

-|-------1--0-----------1--0--------------------1--0-----------|--------------

-|-1-----1--0-----------1--0--------------------1--0-----------|--------------

-|-0-----2--x--4--5--7--2--x--4-4-4-4-4-4-4-4---2--x--4--5--7--|--------------

-|-2-0---3--2--4--5--7--3--2--4-4-4-4-4-4-4-4---3--2--4--5--7--|--------------

-|-3-x---------2--3--5--------2-2-2-2-2-2-2-2---------2--3--5--|--------------

-|---2---------------------------------------------------------|--------------

Chorus W/fill 1

 

-|---------------------|--1--0-----------1--0------------------|--1---0---|---

-|-1-----1---1-----1---|--1--0-----------1--0------------------|--1---0---|---

-|-0--2--0-2-0--2--0-2-|--2--x--4--5--7--2--x--4-4-4-4-4-4-4-4-|--2---x---|---

-|-2--0--2-0-2--0--2-0-|--3--2--4--5--7--3--2--4-4-4-4-4-4-4-4-|--3---2---|---

-|-3--x--3-x-3--x--3-x-|--------2--3--5--------2-2-2-2-2-2-2-2-|----------|---

-|----2----2----2----2-|---------------------------------------|----------|---

W/fill 1

 

-|-----------|-----------------------------------------------------|----------

-|-----------|-----------------------------------------------------|----------

-|-4---5---7-|-----------------------------------------------------|----------

-|-4---5---7-|-7-7-7-7-7-7-7-5-6-------6---------6-----6-6-6-6-6-6-|----------

-|-2---3---5-|-5-5-5-5-5-5-5-5-5-5-5-5-5-5-5-5-5-5-5-5-5-5-5-5-5-5-|----------

-|-----------|-----------------------------------------------------|----------

palm mute ------------------------------|

 

-|------------------------------------------------|------------|--------------

-|------------------------------------------------|-1-----1----|--------------

-|------------------------------------------------|-0--2--0-2--|--------------

-|-6---------6--7-6-------6-6-6-6-6-6-6-6-6-6-6-6-|-2--0--2-0--|--------------

-|-5-x-x-x-x-5--5-5-x-x-x-5-5-5-5-5-5-5-5-5-5-5-5-|-3--x--3-x--|--------------

-|------------------------------------------------|----2----2--|--------------

p.m.-------------------| 12x END

 

 

 

Return to my to my Pearl Jam tabs page

The Tablature is Copyright its respective owners.

Sign Up For My Newsletter
Subscribe | Unsubscribe

Site Map | Disclaimer | Privacy Policy | Media Kit | Submissions/Corrections

Website © 2000-2014 mattsmusicpage.com. All rights reserved.

Legal & DMCA: Matt's Music Page has been providing lyrics and tabs in a legal way, paying royalties each year to a few organizations. Then, all lyrics and tabs were removed from the site. Now, there's a new owner to the site, which purchased it August 26, 2014, and he is in negotiation to obtain licensing from BMI at the moment. If you have a specific DMCA request -- please do not hesitate to contact me via the contact button on top. I will do my very best to keep this site fully legal.

Get our toolbar!