Your One-Stop Source For
Music Lyrics
Bass and Guitar Tabs
and More...
Music Lyrics Bass and Guitar Tabs

 

The Tabs Are Below

Learn To Read Tab
Chords Handbook
Corrections & Additions
Get Official Tab
Pearl Jam tabs @ 911Tabs

Jeremy - Pearl Jam

 

Here is a version of Jeremy you can easily sing and play to on the acoustic

guitar. This is my first submitted tab, however I feel it is about 95% accurate

for a performance. I stole alot from many of the tabs out there to make it one song

that sounds good along with the CD and it will sound great! If your looking for the

"perfect tab" move on, but if your looking for one to play on the acoustic ..then

have at it!

 

Rock on!

 

I----------------------I----------------------I--------------------------I

I----------------------I----------------------I--------------------------I

I----------------------I-----7----------------I--------------------------I

I---------------7----5-I--------5-------------I-------------7----5-------I

I--0---5H7--0-----0----I----------------------I--0--5H7--0----0----------I

I----------------------I----------------------I--------------------------I

 

H* H*

I----------------------I

I----------------------I

I----------------------I

I------7---------------I

I----------7-----------I

I----------------------I

 

 

MAIN RIFF

 

At home, drawing pictures of mountaintops...

I---------------------I----------------------------I

I---------------------I----------------------------I

I---------------------I----------------------------I

I--------------7---5--I--------------7-------------I

I---0--5H7--0----0----I---0--5H7--0-----0--4-------I

I---------------------I----------------------------I

 

 

Daddy didn't ...

A G/A D/A

I----------------I----------------------I------------------------------I

I----------------I--10-------8----------I------------------------------I

I----------------I--9--------7----------I---7--------------------------I

I----------------I--7--------5----------I---4--------------------------I

I----0--5H7--0---I--0--------0----------I---0------------0---5H7----0--I

I----------------I----------------------I------------------------------I

 

 

To the fact that ....

 

D/A A A G/A

I-------------------I-----------------------------I---------------I

I----------5--------I-----------------------------I--10-------8---I

I-7--------6--------I-----------------------------I--8--------7---I

I-4--------7--------I-----------------------------I--7--------5---I

I-0--------7--------I------------------0---5H7--0-I--0--------0---I

I----------5--------I-----------------------------I---------------I

 

 

King Jeremy the ....

 

D/A D/A A

I----------------------I-------------------I------------------------I

I----------------------I----------5--------I------------------------I

I---7------------------I--7-------6--------I------------------------I

I---4------------------I--4-------7--------I------------------------I

I---0-------0--5H7---0-I--0-------7--------I-------------0--5H7--0--I

I----------------------I----------5--------I------------------------I

 

 

CHORUS

 

F (13321x) Dm E F A (57765x)

Jeremy's spoken cla-aass Todaaay...

 

 

 

 

oooooh.....ooooh.....oooh....oooooh...oooh"

|---------------------------|--------------------------|---------------------------|

|---------------------------|--------------------------|---------------------------|

|*--------------------------|--------------------------|---------------------------|

|*--------------------------|--7--------5--------------|--7---------5--------------|

|--------0--5h7--0----------|------0-0-------0--5h7-0--|-----0--5h7------0--5h7-0--|

|---------------------------|--------------------------|---------------------------|

 

 

 

--------------------------|-----------------------------|

--------------------------|-----------------------------|

--------------------------|----------------------------*|

--7--------5--------------|--7----------5--------------*|

------0-0-------0--5h7-0--|-----0-4/5h7------0--5h7-0---|

--------------------------|-----------------------------|

 

 

Try to erase it.. (2:54)

|--------------------------|

|--------------------------|

|--------------------------|

|--5--5--5--5--5--5--5--5--|

|--5--5--5--5--5--5--5--5--|

|--3--3--3--3--3--3--3--3--|

PM....................

 

 

....from the black boooaaard (2:58)

 

 

-----1--1--1--1--1--1--1--|--3----3--3--3--3--3--3--|--5--5--5--5--5--5--5--5--|

-----1--1--1--1--1--1--1--|--3----3--3--3--3--3--3--|--5--5--5--5--5--5--5--5--|

--------------------------|--0----0--0--0--0--0--0--|--------------------------|

-----3--3--3--3--3--3--3--|-------------------------|--7--7--7--7--7--7--7--7--|

--------------------------|-------------------------|--------------------------|

--------------------------|-------------------------|--------------------------|

 

 

 

(3:06)

F(13321x) Dm E F A (57765x)

Jeremy's spoken cla-aass Todaaay...

 

 

(3:26)

 

F (13321x) F F F F

Jeremy spoken ... spoken... Jeremy spoken... spokeeen...

 

 

 

 

CRESCENDO 3:34

F(13321x) Dm E F A (57765x)

Jeremy's spoken cla-aass Todaaay...

 

 

"oooooh.....ooooh.....oooh....oooooh...oooh"

 

-----1--1--1--1--1--1--1--|--3----3--3--3--3--3--3--|--5--5--5--5--5--5--5--5--|

-----1--1--1--1--1--1--1--|--3----3--3--3--3--3--3--|--5--5--5--5--5--5--5--5--|

--------------------------|--0----0--0--0--0--0--0--|--------------------------|

-----3--3--3--3--3--3--3--|-------------------------|--7--7--7--7--7--7--7--7--|

--------------------------|-------------------------|--------------------------|

--------------------------|-------------------------|--------------------------|

 

outro "waaaaa.. ooooo...aaaooo aaaaa"

 

 

|---------------------------|--------------------------|---------------------------|

|---------------------------|--------------------------|---------------------------|

|*--------------------------|--------------------------|---------------------------|

|*--3--3--3--3--3--3--3--3--|--5--5--5--5--5--5--5--5--|---7--7--7--7--7--7--7--7--|

|---3--3--3--3--3--3--3--3--|--5--5--5--5--5--5--5--5--|---7--7--7--7--7--7--7--7--|

|---1--1--1--1--1--1--1--1--|--3--3--3--3--3--3--3--3--|---5--5--5--5--5--5--5--5--|

 

 

(fast breakdown)

"oo oooh eah ...ooh ooh.. eah.. oo ooh .. ooh ooh eah.."

|--------------------------------------------------------|

|--------------------------------------------------------|

|*-------------------------------------------------------|

|*--3--3--7----3--3--7---3--3--7---3-3-7--3-7--3-7-------|

|---3--3--7----3--3--7---3--3--7---3-3-7--3-7--3-7-------|

|---1--1--5----1--1--5---1--1--5---1-1-5--1-5--1-5-------|

 

 

 

Crescendo... "waaaaa.. ooooo...aaaooo aaaaa"

 

|---------------------------|--------------------------|---------------------------|

|---------------------------|--------------------------|---------------------------|

|*--------------------------|--------------------------|---------------------------|

|*--3--3--3--3--3--3--3--3--|--5--5--5--5--5--5--5--5--|---7--7--7--7--7--7--7--7--|

|---3--3--3--3--3--3--3--3--|--5--5--5--5--5--5--5--5--|---7--7--7--7--7--7--7--7--|

|---1--1--1--1--1--1--1--1--|--3--3--3--3--3--3--3--3--|---5--5--5--5--5--5--5--5--|

 

 

 

Ay..yay..yay.yay..yay..yay...yay..yay...yay..yay..ya...yeah

 

|---------------------------|

|---------------------------|

|---6--6--6--6--6--6--6--6--|

|---7--7--7--7--7--7--7--7--|

|---7--7--7--7--7--7--7--7--|

|---5--5--5--5--5--5--5--5--|

 

 

 

last progression (Repeat x2)

|---------------------------|--------------------------|---------------------------|

|---------------------------|--------------------------|---------------------------|

|*--------------------------|--------------------------|---------------------------|

|*--3--3--3--3--3--3--3--3--|--5--5--5--5--5--5--5--5--|---7--7--7--7--7--7--7--7--|

|---3--3--3--3--3--3--3--3--|--5--5--5--5--5--5--5--5--|---7--7--7--7--7--7--7--7--|

|---1--1--1--1--1--1--1--1--|--3--3--3--3--3--3--3--3--|---5--5--5--5--5--5--5--5--|

 

 

 

 

Acoustic OUTRO

 

I--------------------------I---------------------------I

I---------8-----------7----I---------3-----------5-----I

I-------9----------7-----7-I-------4----------5-----5--I

I--------------------------I---------------------------I

I---0----------0-----------I---0----------0------------I

I--------------------------I---------------------------I

 

 

I--------------------------I---------------------------I

I---------0-----------1----I--------0------------1-----I

I-------0----------2-----2-I------0-----------2-----2--I

I--------------------------I---------------------------I

I---0-----------0----------I---0----------0------------I

I--------------------------I---------------------------I

 

 

Repeat the first three the second time through and end with:

 

H* H*

I--------------------------------------I

I-------------1------------------------I

I--------2----------------7------------I

I---------------------------------7----I

I---0-------------0--------------------I

I--------------------------------------I

 

 

Return to my to my Pearl Jam tabs page

The Tablature is Copyright its respective owners.

Sign Up For My Newsletter
Subscribe | Unsubscribe

Site Map | Disclaimer | Privacy Policy | Media Kit | Submissions/Corrections

Website © 2000-2014 mattsmusicpage.com. All rights reserved.

Legal & DMCA: Matt's Music Page has been providing lyrics and tabs in a legal way, paying royalties each year to a few organizations. Then, all lyrics and tabs were removed from the site. Now, there's a new owner to the site, which purchased it August 26, 2014, and he is in negotiation to obtain licensing from BMI at the moment. If you have a specific DMCA request -- please do not hesitate to contact me via the contact button on top. I will do my very best to keep this site fully legal.

Get our toolbar!

 

BRAND NEW KEY OF C HOHNER MINI HARMONICA HARP KEYRING KEYCHAIN KEY RING CHAIN
$8.21
BRAND NEW KEY OF C HOHNER MINI HARMONICA HARP KEYRING KEYCHAIN KEY RING CHAIN picture


RISING SONS BAND *2X3 FRIDGE MAGNET* VOCALS GUITAR MANDOLIN DOBRO HARMONICA SONG
$3.99
RISING SONS BAND *2X3 FRIDGE MAGNET* VOCALS GUITAR MANDOLIN DOBRO HARMONICA SONG picture


Vtg Christmas Angel Baby Girl W Harmonica Boy W Book SET OF 2 W GOLD WINGS
$125.0
Vtg Christmas Angel Baby Girl W Harmonica Boy W Book SET OF 2 W GOLD WINGS  picture


Beautiful Hand Carved Jewelry Trinket Jewelry Box Harmonica Case Bone And Brass
$14.5
Beautiful Hand Carved Jewelry Trinket Jewelry Box Harmonica Case Bone And Brass picture


BRAND NEW* HOHNER BOB DYLAN SIGNATURE LIMITED EDITION HARMONICA COLLECTORS ITEM
$140.19
BRAND NEW* HOHNER BOB DYLAN SIGNATURE LIMITED EDITION HARMONICA COLLECTORS ITEM picture