Your One-Stop Source For
Music Lyrics
Bass and Guitar Tabs
and More...
Music Lyrics Bass and Guitar Tabs

 

The Tabs Are Below

Learn To Read Tab
Chords Handbook
Corrections & Additions
Get Official Tab
Pearl Jam tabs @ 911Tabs

 

Author/Artist: Pearl Jam

Title: Jeremy

Album: Ten

Transcribed by: Evan Cowan

Email: icowan@marin.k12.ca.us

06/22/99

 

5^ indicates harmonic at 5th fret

 

-|---------|---------|-------|-----------------|-------|----------------------

-|---------|---------|-------|-----------------|-------|----------------------

-|---------|---------|----5^-|-----------------|-7^----|----------------------

-|---------|-7----5--|-5^----|----------7----5-|----7^-|----------------------

-|-0-5h7-0-|----0----|-------|--0-5h7-0----0---|-------|----------------------

-|---------|---------|-------|-----------------|-------|----------------------

Intro, Jeff Mike Jeff Mike

 

-|---------------|----------|----------------|-----------------------|--------

-|---------------|----------|----------------|-----------------------|--------

-|---------------|----5^----|----------------|-----------------------|--------

-|---------7---5-|-5^----7^-|---------7----5-|-5-5-5-5-5-5-5---------|--------

-|-0-5h7-0---0---|----------|-0-5h7-0----0---|-0-0-0-0-0-0-0-0-5h7-0-|--------

-|---------------|----------|----------------|-----------------------|--------

Jeff Mike Jeff Stone(plays G)Mike(plays A)

 

-|--------|-----------------|-----------|--------|----------------|---------|-

-|--------|--------------5--|-----------|--------|--------------5-|---------|-

-|--------|--------------6--|-----------|--------|--------------6-|---------|-

-|-7----5-|---------7----x--|-----------|-7----5-|---------7----x-|---------|-

-|----0---|-0-5h7-0----0-7--|---0-5h7-0-|----0---|-0-5h7-0----0-7-|-0-5h7-0-|-

-|--------|-----------------|-----------|--------|----------------|---------|-

Verse, Stone Mike enter

 

-|-----------|-------------|--------|----------|------------------|-----------

-|-----------|-------------|--------|----------|-12h14p12---12----|-----------

-|-9---7-----|-7-----------|-7---9--|----------|---------14----14-|-----------

-|-7---5-----|-4-----------|-5---7--|----------|------------------|-----------

-|---0-----0-|-----0-5h7-0-|---0----|--0-5h7-0-|------------------|-----------

-|-----------|-------------|--------|----------|------------------|-----------

Mike w/Fill 1 2x Fill 1(Stone)

 

-|-----------|----------|---|------------|------------|---------|---|-5-5-|---

-|-----------|----------|---|------------|------------|---------|---|---5-|---

-|-10-10-10--|----------|-2-|-2----------|-10-10-10---|---------|-2-|-----|---

-|-10-10-10--|----------|-2-|-2----------|-10-10-10---|---------|-2-|-----|---

-|--8--8--8--|----------|-0-|-0--0-5h7-0-|--8--8--8---|---------|-0-|-----|---

-|-----------|----------|---|------------|------------|---------|---|-----|---

Chorus, Mike

 

-|-12-------12--------|-----------------|----------------------|--------------

-|----13--------13----|--------------12-|-12h14p12----12-------|--------------

-|-------14--------14-|-14----14--14----|----------14----14-14-|--------------

-|--------------------|-----------------|----------------------|--------------

-|--------------------|-----------------|----------------------|--------------

-|--------------------|-----------------|----------------------|--------------

Chorus, Stone

 

-|-------------12----------|-12-------12--------|-----12-----------|----------

-|-12h14p12-------12-------|----13--------13----|--------13--------|----------

-|----------14-------14-14-|-------14--------14-|-14--------14-----|----------

-|-------------------------|--------------------|------------------|----------

-|-------------------------|--------------------|------------------|----------

-|-------------------------|--------------------|------------------|----------

 

 

-|-------------12----------|------------|-1-1-1--|-5--5--5--|-0-|-0-|-1-1-1-|-

-|-12h14p12-------12-------|------------|-1-1-1--|-6--5--6--|-2-|-2-|-1-1-1-|-

-|----------14-------14-14-|------------|-2-2-2--|-7--7--7--|-2-|-2-|-2-2-2-|-

-|-------------------------|------------|-3-3-3--|-7--7--7--|-2-|-2-|-3-3-3-|-

-|-------------------------|----0-5h7-0-|-3-3-3--|-5--5--5--|-0-|-0-|-3-3-3-|-

-|-------------------------|------------|-1-1-1--|----------|---|---|-1-1-1-|-

Chorus, G3 (acoustic)

 

-|-5--5--0--|-0--|------------------------------------------------------------

-|-6--5--1--|-2--|------------------------------------------------------------

-|-7--7--0--|-2--|------------------------------------------------------------

-|-7--7--2--|-2--|------------------------------------------------------------

-|-5--5--3--|-0--|------------------------------------------------------------

-|----------|----|------------------------------------------------------------

 

 

-|--------|---------|--------|---------|--------|---------|--------|--------|-

-|--------|---------|------5-|---------|--------|---------|------5-|--------|-

-|--------|---------|------6-|---------|--------|---------|------6-|--------|-

-|-7----5-|---------|-7----x-|---------|-7----5-|---------|-7----x-|--------|-

-|----0---|-0-5h7-0-|----0-7-|-0-5h7-0-|----0---|-0-5h7-0-|----0-7-|-0-5h7-0|-

-|--------|---------|--------|---------|--------|---------|--------|--------|-

2nd verse, Stone (Mike enters on 2nd time) 2x

 

-|---------|---5----------|------5--|-5-5-5-5--5-5----------|-----------------

-|---------|---8----------|---5--5--|-5-5-5-5--5-5----------|-----------------

-|---------|-7------------|---7--7--|-7-7-7-7--7-6----------|-----------------

-|-7-7---5-|-5----------5-|-7-7--7--|-7-7-7-7--7-7--------5-|-----------------

-|-----0---|-0----0-5h7---|---------|---------------0-5h7---|-----------------

-|---------|--------------|---------|-----------------------|-----------------

2nd Verse, Mike 2x

 

-|-----------|------------|-------|----------|----------|-----------|-------|-

-|-----------|------------|-------|----------|----------|-----------|-------|-

-|-9---7-----|-7----------|-7---9-|----------|-9---7----|-7---------|-7---9-|-

-|-7---5-----|-4----------|-5---7-|----------|-7---5----|-4---------|-5---7-|-

-|---0-----0-|----0-5h7-0-|---0---|--0-5h7-0-|---0----0-|---0-5h7-0-|---0---|-

-|-----------|------------|-------|----------|----------|-----------|-------|-

Pre-Chorus, Mike w/Fill 1

 

-|---------|-----------|----|----|------------|------------|---|-----|-5--5-|-

-|---------|-----------|----|----|------------|------------|---|-----|----5-|-

-|---------|-10-10-10--|----|-2--|-2----------|-10-10-10---|---|-2---|------|-

-|---------|-10-10-10--|----|-2--|-2----------|-10-10-10---|---|-2---|------|-

-|-0-5h7-0-|--8--8--8--|----|-0--|-0--0-5h7-0-|--8--8--8---|---|-0---|------|-

-|---------|-----------|----|----|------------|------------|---|-----|------|-

2nd Chorus, Mike With Fill 2

 

-|----------|------------|------|--------------|--------|---------------------

-|----------|------------|------|--------------|--------|---------------------

-|-10-10-10-|------------|-2----|-2------------|--------|---------------------

-|-10-10-10-|------------|-2----|-2------------|-7-5----|---------------------

-|--8--8--8-|------------|-0----|-0----0-5h7-0-|--------|---------------------

-|----------|------------|------|--------------|--------|---------------------

Fill 2

 

-|-12-------12--------|-----------------|----------------------|--------------

-|----13--------13----|--------------12-|-12h14p12----12-------|--------------

-|-------14--------14-|-14----14--14----|----------14----14-14-|--------------

-|--------------------|-----------------|----------------------|--------------

-|--------------------|-----------------|----------------------|--------------

-|--------------------|-----------------|----------------------|--------------

2nd Chorus, Stone

 

-|----------------------|-12-------12--------|----------------|---------------

-|-12h14p12----12-------|----13--------13----|-------------12-|---------------

-|----------14----14-14-|-------14--------14-|-14---14--14----|---------------

-|----------------------|--------------------|----------------|---------------

-|----------------------|--------------------|----------------|---------------

-|----------------------|--------------------|----------------|---------------

 

 

-|-------------12-----------|-------------12-----------|----------------------

-|-12h14p12-------12--------|-12h14p12-------12--------|----------------------

-|----------14--------14-14-|----------14--------14-14-|----------------------

-|--------------------------|--------------------------|----------------------

-|--------------------------|--------------------------|----------------------

-|--------------------------|--------------------------|----------------------

 

 

-|-12-------12--------|---------------|-------------12----------|-------------

-|----13--------13----|------------12-|-12h14p12-------12-------|-------------

-|-------14--------14-|-14---14-14----|----------14-------14-14-|-------------

-|--------------------|---------------|-------------------------|-------------

-|--------------------|---------------|-------------------------|-------------

-|--------------------|---------------|-------------------------|-------------

|----------2x-----------|

 

-|-1-1-1-|-5--5--5-|-0-|-0-|-1-1-1-|-5--5--0-|-0-|-|-1-1-1-|-5--5--5-|-0-|-0|-

-|-1-1-1-|-6--5--6-|-2-|-2-|-1-1-1-|-6--5--1-|-2-|-|-1-1-1-|-6--5--6-|-2-|-2|-

-|-2-2-2-|-7--7--7-|-2-|-2-|-2-2-2-|-7--7--0-|-2-|-|-2-2-2-|-7--7--7-|-2-|-2|-

-|-3-3-3-|-7--7--7-|-2-|-2-|-3-3-3-|-7--7--2-|-2-|-|-3-3-3-|-7--7--7-|-2-|-2|-

-|-3-3-3-|-5--5--5-|-0-|-0-|-3-3-3-|-5--5--3-|-0-|-|-3-3-3-|-5--5--5-|-0-|-0|-

-|-1-1-1-|---------|---|---|-1-1-1-|---------|---|-|-1-1-1-|---------|---|--|-

2nd Chorus, G3 (acoustic)

 

-|-----------------|--------------------|-----------------|-------------------

-|-----------------|--------------------|-----------------|-------------------

-|-----------------|--------------------|-----------------|-------------------

-|-7-----5---------|-7-------5----------|-7----5----------|-------------------

-|---0-0---0-5h7-0-|---0-5h7----0-5h7-0-|----0----0-5h7-0-|-------------------

-|-----------------|--------------------|-----------------|-------------------

Bridge, Mike+Stone

 

-|----------------------|-----------------|-------------------|---------------

-|----------------------|-----------------|-------------------|---------------

-|----------------------|-----------------|-------------------|---------------

-|-7---------5----------|-7-----5---------|-7-------5---------|---------------

-|---0-4/5h7----0-5h7-0-|---0-0---0-5h7-0-|---0-5h7---0-5h7-0-|---------------

-|----------------------|-----------------|-------------------|---------------

 

 

-|----------------|---------------------|-------------------|-----------------

-|----------------|---------------------|-------------------|-----------------

-|----------------|---------------------|-------------------|-----------------

-|-7----5---------|-7---------5---------|-----------------5-|-----------------

-|----0---0-5h7-0-|---0-4/5h7---0-5h7-0-|-0-0-0-0-0-0-5h7---|-----------------

-|----------------|---------------------|-------------------|-----------------

With Fill 3 Fill 3(Stone)

 

-|----------|----------|------|--------|-----------|--------|-------|---------

-|----------|----------|------|--------|-----------|--------|-------|---------

-|-10-10-10-|----------|-2----|--------|-10-10-10--|--------|-2-----|---------

-|-10-10-10-|----------|-2----|--------|-10-10-10--|--------|-2-----|---------

-|--8--8--8-|----------|-0----|--------|--8--8--8--|--------|-0-----|---------

-|----------|----------|------|--------|-----------|--------|-------|---------

3rd Chorus, Mike w/ Fill 2

 

-|-5--5--|----------|-------|-----|------------|------------|---------|-------

-|----5--|----------|-------|-----|------------|------------|---------|-------

-|-------|-10-10-10-|-------|-2---|-2----------|-10-10-10---|---------|-------

-|-------|-10-10-10-|-------|-2---|-2----------|-10-10-10---|---------|-------

-|-------|--8--8--8-|-------|-0---|-0--0-5h7-0-|--8--8--8---|---------|-------

-|-------|----------|-------|-----|------------|------------|---------|-------

w/ Fill 2

 

-|----|-----------|-12-------12---------|----------------|--------------------

-|----|-----------|----13--------13-----|-------------12-|--------------------

-|-2--|-2---------|-------14--------14--|-14----14-14----|--------------------

-|-2--|-2---------|---------------------|----------------|--------------------

-|-0--|-0-0-5h7-0-|---------------------|----------------|--------------------

-|----|-----------|---------------------|----------------|--------------------

3rd Chorus, Stone

 

-|----------------------|----------------------|-12-------12--------|---------

-|-12h14p12----12-------|-12h14p12----12-------|----13--------13----|---------

-|----------14----14-14-|----------14----14-14-|-------14--------14-|---------

-|----------------------|----------------------|--------------------|---------

-|----------------------|----------------------|--------------------|---------

-|----------------------|----------------------|--------------------|---------

 

 

-|----------------|-------------12----------|-------------12----------|-------

-|-------------12-|-12h14p12-------12-------|-12h14p12-------12-------|-------

-|-14---14--14----|----------14-------14-14-|----------14-------14-14-|-------

-|----------------|-------------------------|-------------------------|-------

-|----------------|-------------------------|-------------------------|-------

-|----------------|-------------------------|-------------------------|-------

 

 

-|-12-------12--------|---------------|-------------12----------|-------------

-|----13--------13----|------------12-|-12h14p12-------12-------|-------------

-|-------14--------14-|-14---14-14----|----------14-------14-14-|-------------

-|--------------------|---------------|-------------------------|-------------

-|--------------------|---------------|-------------------------|-------------

-|--------------------|---------------|-------------------------|-------------

 

 

-|-------------12----------|-12-------12--------|-----------------|-----------

-|-12h14p12-------12-------|----13--------13----|-----17--17--17--|-----------

-|----------14-------14-14-|-------14--------14-|-14--14--14--14--|-----------

-|-------------------------|--------------------|-----------------|-----------

-|-------------------------|--------------------|-----------------|-----------

-|-------------------------|--------------------|-----------------|-----------

 

 

-|------------------|------------------|--------------------------------------

-|--17--17--17--17--|--17--17--17--17--|--------------------------------------

-|--14--14--14--14--|--14--14--14--14--|--------------------------------------

-|------------------|------------------|--------------------------------------

-|------------------|------------------|--------------------------------------

-|------------------|------------------|--------------------------------------

(Upstrokes on upbeats)

 

-|-1-1-1-|-5-5-5-|-0-|-0-|-1-1-1-|-5-5-0-|-0-|-0-|-1-1-1-|-5-5-5-|-0-|-0-|----

-|-1-1-1-|-6-5-6-|-2-|-2-|-1-1-1-|-6-5-1-|-2-|-2-|-1-1-1-|-6-5-6-|-2-|-2-|----

-|-2-2-2-|-7-7-7-|-2-|-2-|-2-2-2-|-7-7-0-|-2-|-2-|-2-2-2-|-7-7-7-|-2-|-2-|----

-|-3-3-3-|-7-7-7-|-2-|-2-|-3-3-3-|-7-7-2-|-2-|-2-|-3-3-3-|-7-7-7-|-2-|-2-|----

-|-3-3-3-|-5-5-5-|-0-|-0-|-3-3-3-|-5-5-3-|-0-|-0-|-3-3-3-|-5-5-5-|-0-|-0-|----

-|-1-1-1-|-------|---|---|-1-1-1-|-------|---|---|-1-1-1-|-------|---|---|----

3rd Chorus, G3 (acoustic) |----------2x---------|

 

-|--17--17--17--17-|--17--17--17--17-|--17--17--17--17--17--17--17--17-|------

-|--17--17--17--17-|--17--17--17--17-|--17--17--17--17--17--17--17--17-|------

-|--14--14--14--14-|--14--14--14--14-|--14--14--14--14--14--14--14--14-|------

-|-----------------|-----------------|---------------------------------|------

-|-----------------|-----------------|---------------------------------|------

-|-----------------|-----------------|---------------------------------|------

Outro, Stone(play as upstrokes on the upbeat) 9x

 

-|---------|----------|---------------------------------------|---------------

-|---------|----------|---------------------------------------|---------------

-|-17*-----|-16*------|--14*----------------------------------|---------------

-|---------|----------|---------------------------------------|---------------

-|-15------|-14-------|--12-----------------------------------|---------------

-|---------|----------|---------------------------------------|---------------

Outro,Mike(*occasionally add in the octave) 9x

 

-|-1-1--1--1-1-1-|-3-3--3--3-3-3-|---------------|---------------|------------

-|-1-1--1--1-1-1-|-3-3--3--3-3-3-|---------------|---------------|------------

-|-2-2--2--2-2-2-|-0-0--0--0-0-0-|-2-2--2--2-2-2-|-2-2--2--2-2-2-|------------

-|-3-3--3--3-3-3-|-0-0--0--0-0-0-|-2-2--2--2-2-2-|-2-2--2--2-2-2-|------------

-|-3-3--3--3-3-3-|-2-2--2--2-2-2-|-0-0--0--0-0-0-|-0-0--0--0-0-0-|------------

-|-1-1--1--1-1-1-|-3-3--3--3-3-3-|---------------|---------------|------------

Outro, G3 (acoustic) 9x

 

-|------|------|------|------|------------------------------------------------

-|------|------|------|------|------------------------------------------------

-|------|------|------|------|------------------------------------------------

-|-12^--|-12^--|-12^--|------|------------------------------------------------

-|------|------|------|-12^--|------------------------------------------------

-|------|------|------|------|------------------------------------------------

Mike(play harmonic, w/ 1/2 step whammy bar dive every eighth beat)

 

-|------------------|------------------|--------------|----------------|------

-|-----8--------7---|------------5-----|--------------|----------------|------

-|---7---7----7---7-|-----7----5---5---|-----4------5-|-----4------5---|------

-|------------------|---9--------------|---5------7---|---5------7---7-|------

-|-0--------0-------|-0-----0--------0-|-0-----0------|-0-----0--------|------

-|------------------|------------------|--------------|----------------|------

Stone

 

-|-----------------|----------------|----------------|--------------|-----|---

-|-----8-------7---|------------5---|----------------|--------------|-----|---

-|---9---9---7---7-|-----7----5---5-|-----4------5---|-----4--------|-5^--|---

-|-----------------|---9------------|---5------7---7-|---5-------7^-|-----|---

-|-0-------0-------|-0-----0--------|-0-----0--------|-0-----0------|-----|---

-|-----------------|----------------|----------------|--------------|-----|---

 

 

Return to my to my Pearl Jam tabs page

The Tablature is Copyright its respective owners.

Sign Up For My Newsletter
Subscribe | Unsubscribe

Site Map | Disclaimer | Privacy Policy | Media Kit | Submissions/Corrections

Website © 2000-2014 mattsmusicpage.com. All rights reserved.

Legal & DMCA: Matt's Music Page has been providing lyrics and tabs in a legal way, paying royalties each year to a few organizations. Then, all lyrics and tabs were removed from the site. Now, there's a new owner to the site, which purchased it August 26, 2014, and he is in negotiation to obtain licensing from BMI at the moment. If you have a specific DMCA request -- please do not hesitate to contact me via the contact button on top. I will do my very best to keep this site fully legal.

Get our toolbar!