Your One-Stop Source For
Music Lyrics
Bass and Guitar Tabs
and More...
Music Lyrics Bass and Guitar Tabs

 

The Tabs Are Below

Learn To Read Tab
Chords Handbook
Corrections & Additions
Get Official Tab
Pearl Jam tabs @ 911Tabs

Author/Artist: Pearl Jam

Title: Insignificance

Album: Binaural

Transcribed by: Evan Cowan and Chris Wilson

Email: ecowan@uclink4.berkeley.edu

 

Stone - G1

Mike - G2

I think there's 3 guitars in this song, I've tried to combine

the third part into the other two parts

 

-|---------------|---------------|---------------|-----------------|--------|-

-|---------------|---------------|---------------|-----------------|--------|-

-|-9-----------9-|-9-----------9-|-9-------------|-----------------|--------|-

-|-7-----------7-|-7-----------7-|-7-----------7-|---------------7-|-7------|-

-|-0-----------0-|-9-----------9-|-7-----------7-|-7-------------7-|-0------|-

-|---------------|---------------|---------------|-8-------------8-|--------|-

G1 |------------------------3x-(Both Guitars)--------------------|

 

-|---------------|---------------|---------------|-----------------|--------|-

-|---------------|---------------|---------------|-----------------|--------|-

-|-9-------------|---------------|-------9-9-9-9-|-9-9-9-9-9-9-9-9-|-9------|-

-|-7-------------|---------------|---7-7-7-7-7-7-|-7-7-7-7-7-7-7-7-|-7------|-

-|-0-------------|---------------|---0-0-0-0-0-0-|-0-0-0-0-0-0-0-0-|-0------|-

-|---------------|---------------|---------------|-----------------|--------|-

G2

 

-|------------------------------|------------------------------|--------------

-|------------------------------|------------------------------|--------------

-|-----6---6------0------0----0-|-----6---6------0------0----0-|--------------

-|--------------0------0--------|--------------0------0--------|--------------

-|------------5------6------7---|------------5------6------7---|--------------

-|-5----------------------------|-5----------------------------|--------------

G1 All in all it's no one's fault excuses turn to carbon wall

 

-|------------------------------|------------------------------|--------------

-|------------------------------|------------------------------|--------------

-|-----6---6--------------------|-----6---6--------------------|--------------

-|-----7---7--------------------|-----7---7--------------------|--------------

-|------------------------------|------------------------------|--------------

-|-5----------------------------|-5----------------------------|--------------

G2

 

-|------------------------------|------------------------------|--------------

-|------------------------------|------------------------------|--------------

-|-----6---6------0------0----0-|-----6---6------0------0----0-|--------------

-|--------------0------0--------|--------------0------0--------|--------------

-|------------5------6------7---|------------5------6------7---|--------------

-|-5----------------------------|-5----------------------------|--------------

G1 Blame it all on chemical intercourse

 

-|------------------------------|------------------------------|--------------

-|------------------------------|------------------------------|--------------

-|-----6---6--------------------|-----6---6--------------------|--------------

-|-----7---7--------------------|-----7---7--------------------|--------------

-|------------------------------|------------------------------|--------------

-|-5----------------------------|-5--------------------------0-|--------------

G2

 

-|------------------------------|------------------------------|--------------

-|------------------------------|------------------------------|--------------

-|-----6---6------0------0----0-|-----6---6------0------0----0-|--------------

-|--------------0------0--------|--------------0------0--------|--------------

-|------------5------6------7---|------------5------6------7---|--------------

-|-5----------------------------|-5----------------------------|--------------

G1 The swallowed seeds of arrogance breeding in the thoughts of ten

 

-|------------------------------|------------------------------|--------------

-|------------------------------|------------------------------|--------------

-|-----6---6--------------------|-----6---6--------------------|--------------

-|-----7---7--------------------|-----7---7--------------------|--------------

-|------------------------------|------------------------------|--------------

-|-5----------------------------|-5----------------------------|--------------

G2

 

-|------------------------------|------------------------------|--------------

-|------------------------------|------------------------------|--------------

-|-----6---6------0------0----0-|-----6---6------0------0----0-|--------------

-|--------------0------0--------|--------------0------0--------|--------------

-|------------5------6------7---|------------5------6------7---|--------------

-|-5----------------------------|-5----------------------------|--------------

G1 Thousand fools that fight irrelevance

 

-|------------------------------|------------------------------|--------------

-|------------------------------|------------------------------|--------------

-|-----6---6--------------------|-----6---6--------------------|--------------

-|-----7---7--------------------|-----7---7--------------------|--------------

-|------------------------------|------------------------------|--------------

-|-5----------------------------|-5----------------------------|--------------

G2

 

-|-----------------------------|---------------------------------|------------

-|-----------------------------|---------------------------------|------------

-|-----------------------------|-9-9-9-9-9-9-9-9-9-9-9-9-9-9-9-9-|------------

-|-------9-9-------9-9-------9-|-9-9-9-9-9-9-9-9-9-9-9-9-9-9-9-9-|------------

-|-----------------------------|-7-7-7-7-7-7-7-7-7-7-7-7-7-7-7-7-|------------

-|--8--8------8--8------8--8---|---------------------------------|------------

G1+G2 The full moon is dead skin

 

-|-----------------------------|---------------------------------|------------

-|-----------------------------|---------------------------------|------------

-|-----------------------------|-9-9-9-9-9-9-9-9-9-9-9-9-9-9-9-9-|------------

-|-------9-9-------9-9-------9-|-9-9-9-9-9-9-9-9-9-9-9-9-9-9-9-9-|------------

-|-----------------------------|-7-7-7-7-7-7-7-7-7-7-7-7-7-7-7-7-|------------

-|--8--8------8--8------8--8---|---------------------------------|------------

G1+G2 The one down here's wearing thin

 

-|-----------------------------|---------------------------------|------------

-|-----------------------------|---------------------------------|------------

-|-----------------------------|-9-9-9-9-9-9-9-9-9-9-9-9-9-9-9-9-|------------

-|-------9-9-------9-9-------9-|-9-9-9-9-9-9-9-9-9-9-9-9-9-9-9-9-|------------

-|-----------------------------|-7-7-7-7-7-7-7-7-7-7-7-7-7-7-7-7-|------------

-|--8--8------8--8------8--8---|---------------------------------|------------

G1+G2 So set up the ten pins as the

 

-|---------------------------------------------------|------------------------

-|---------------------------------------------------|------------------------

-|---10-10-10-10-10-10-10-10-10-10-10-10-10-10-10-10-|------------------------

-|---10-10-10-10-10-10-10-10-10-10-10-10-10-10-10-10-|------------------------

-|----8--8--8--8--8--8--8--8--8--8--8--8--8--8--8--8-|------------------------

-|---------------------------------------------------|------------------------

G1+G2 Hu - man tide rolls

 

-|-----------------------------|-------------------------------------------|--

-|-----------------------------|-------------------------------------------|--

-|-----------------------------|-10-10-10-10-10-10-10-10-10-10-10-10-10-10-|--

-|-------9-9-------9-9-------9-|-10-10-10-10-10-10-10-10-10-10-10-10-10-10-|--

-|-----------------------------|--8--8--8--8--8--8--8--8--8--8--8--8--8--8-|--

-|--8--8------8--8------8--8---|-------------------------------------------|--

G1+G2 In like a ball that's spin - ning

 

-|-----------------|-----------------|-----------------|-----------------|----

-|-----------------|-----------------|-----------------|-----------------|----

-|-----------------|-----------------|-----------------|-----------------|----

-|-7-7-7-7-7-7-7-7-|-7-7-7-7-7-7-7-7-|-7-7-7-7-7-7-7-7-|-----------------|----

-|-0-0-0-0-0-0-0-0-|-9-9-9-9-9-9-9-9-|-7-7-7-7-7-7-7-7-|-7-7-7-7-7-7-7-7-|----

-|-----------------|-----------------|-----------------|-8-8-8-8-8-8-8-8-|----

G1 Bombs dropping down over head on the ground it's in-

 

-|-----------------|-----------------|-----------------|-----------------|----

-|-----------------|---------5-------|-0---------------|-----0-----0-----|----

-|-9---------------|-------------5---|-----------------|-----------------|----

-|-7---------------|-----7-----------|-----------------|-----------------|----

-|-0---------------|-----------------|-----------------|-----------------|----

-|-----------------|-----------------|-----------------|-----------------|----

G2

 

-|-----------------|-----------------|-----------------|-----------------|----

-|-----------------|-----------------|-----------------|-----------------|----

-|-----------------|-----------------|-----------------|-----------------|----

-|-7-7-7-7-7-7-7-7-|-7-7-7-7-7-7-7-7-|-7-7-7-7-7-7-7-7-|-----------------|----

-|-0-0-0-0-0-0-0-0-|-9-9-9-9-9-9-9-9-|-7-7-7-7-7-7-7-7-|-7-7-7-7-7-7-7-7-|----

-|-----------------|-----------------|-----------------|-8-8-8-8-8-8-8-8-|----

G1 -stilled to wanna live

 

-|-----------------|-----------------|-----------------|-----------------|----

-|-----------------|---------5-------|-0---------------|-0---------------|----

-|-9---------------|-------------5---|-----------------|-----------------|----

-|-7---------------|-----7-----------|-----------------|-----------------|----

-|-0---------------|-----------------|-----------------|-----------------|----

-|-----------------|-----------------|-----------------|-----------------|----

G2

 

-|-----------------|-----------------|-----------------|-----------------|----

-|-----------------|-----------------|-----------------|-----------------|----

-|-----------------|-----------------|-----------------|-----------------|----

-|-7-7-7-7-7-7-7-7-|-7-7-7-7-7-7-7-7-|-7-7-7-7-7-7-7-7-|-----------------|----

-|-0-0-0-0-0-0-0-0-|-9-9-9-9-9-9-9-9-|-7-7-7-7-7-7-7-7-|-7-7-7-7-7-7-7-7-|----

-|-----------------|-----------------|-----------------|-8-8-8-8-8-8-8-8-|----

G1 Bombs dropping down please for-give our home town in our

 

-|-----------------|-----------------|-----------------|-----------------|----

-|-----------------|---------5-------|-0---------------|-----0-------0---|----

-|-9---------------|-------------5---|-----------------|-----------------|----

-|-7---------------|-----7-----------|-----------------|-----------------|----

-|-0---------------|-----------------|-----------------|-----------------|----

-|-----------------|-----------------|-----------------|-----------------|----

G2

 

-|------------------------------|------------------------------|--------------

-|------------------------------|------------------------------|--------------

-|-----6---6------0------0----0-|-----6---6------0------0----0-|--------------

-|--------------0------0--------|--------------0------0--------|--------------

-|------------5------6------7---|------------5------6------7---|--------------

-|-5----------------------------|-5----------------------------|--------------

G1 In - sig - nif - icance

 

-|------------------------------|------------------------------|--------------

-|------------------------------|------------------------------|--------------

-|-9--------------------------9-|-9------------------------9-9-|--------------

-|-7--------------------------7-|-7------------------------7-7-|--------------

-|-0--------------------------0-|-0------------------------0-0-|--------------

-|------------------------------|------------------------------|--------------

G2

 

-|------------------------------|------------------------------|--------------

-|------------------------------|------------------------------|--------------

-|-----6---6------0------0----0-|-----6---6------0------0----0-|--------------

-|--------------0------0--------|--------------0------0--------|--------------

-|------------5------6------7---|------------5------6------7---|--------------

-|-5----------------------------|-5----------------------------|--------------

G1 Turn the jukebox up he said

 

-|------------------------------|------------------------------|--------------

-|------------------------------|------------------------------|--------------

-|-----6---6--------------------|-----6---6--------------------|--------------

-|-----7---7--------------------|-----7---7--------------------|--------------

-|------------------------------|------------------------------|--------------

-|-5----------------------------|-5----------------------------|--------------

G2

 

-|------------------------------|------------------------------|--------------

-|------------------------------|------------------------------|--------------

-|-----6---6------0------0----0-|-----6---6------0------0----0-|--------------

-|--------------0------0--------|--------------0------0--------|--------------

-|------------5------6------7---|------------5------6------7---|--------------

-|-5----------------------------|-5----------------------------|--------------

G1 Dancing in irreverance Play C3 let the song

 

-|------------------------------|------------------------------|--------------

-|------------------------------|------------------------------|--------------

-|-----6---6--------------------|-----6---6--------------------|--------------

-|-----7---7--------------------|-----7---7--------------------|--------------

-|------------------------------|------------------------------|--------------

-|-5----------------------------|-5----------------------------|--------------

G2

 

-|------------------------------|-----------------------------|---------------

-|------------------------------|-----------------------------|---------------

-|-----6---6------0------0----0-|-----------------------------|---------------

-|--------------0------0--------|-------9-9-------9-9-------9-|---------------

-|------------5------6------7---|-----------------------------|---------------

-|-5----------------------------|--8--8------8--8------8--8---|---------------

G1 Protest The plates began to shift

 

-|------------5-----------------|-----------------------------|---------------

-|------------------------------|-----------------------------|---------------

-|-----6---6--------------------|-----------------------------|---------------

-|-----7---7--------------------|-------9-9-------9-9-------9-|---------------

-|------------------------------|-----------------------------|---------------

-|-5----------------------------|--8--8------8--8------8--8---|---------------

G2

 

-|---------------------------------|-----------------------------|------------

-|---------------------------------|-----------------------------|------------

-|-9-9-9-9-9-9-9-9-9-9-9-9-9-9-9-9-|-----------------------------|------------

-|-9-9-9-9-9-9-9-9-9-9-9-9-9-9-9-9-|-------9-9-------9-9-------9-|------------

-|-7-7-7-7-7-7-7-7-7-7-7-7-7-7-7-7-|-----------------------------|------------

-|---------------------------------|--8--8------8--8------8--8---|------------

G1+G2 Perfect lefts come rolling

 

-|---------------------------------|-----------------------------|------------

-|---------------------------------|-----------------------------|------------

-|-9-9-9-9-9-9-9-9-9-9-9-9-9-9-9-9-|-----------------------------|------------

-|-9-9-9-9-9-9-9-9-9-9-9-9-9-9-9-9-|-------9-9-------9-9-------9-|------------

-|-7-7-7-7-7-7-7-7-7-7-7-7-7-7-7-7-|-----------------------------|------------

-|---------------------------------|--8--8------8--8------8--8---|------------

G1+G2 In I was alone and far away

 

-|---------------------------------|------------------------------------------

-|---------------------------------|------------------------------------------

-|-9-9-9-9-9-9-9-9-9-9-9-9-9-9-9-9-|------------------------------------------

-|-9-9-9-9-9-9-9-9-9-9-9-9-9-9-9-9-|------------------------------------------

-|-7-7-7-7-7-7-7-7-7-7-7-7-7-7-7-7-|------------------------------------------

-|---------------------------------|------------------------------------------

G1+G2 Hey when I

 

-|--------------------------------------------------|-----------------------|-

-|--------------------------------------------------|-----------------------|-

-|--10-10-10-10-10-10-10-10-10-10-10-10-10-10-10-10-|-----------------------|-

-|--10-10-10-10-10-10-10-10-10-10-10-10-10-10-10-10-|-------9-9-------9-9---|-

-|---8--8--8--8--8--8--8--8--8--8--8--8--8--8--8--8-|-----------------------|-

-|--------------------------------------------------|--8--8------8--8-------|-

G1+G2 Heard the band start playing

 

-|---------|-------------------------------------------------|----------------

-|---------|-------------------------------------------------|----------------

-|---------|-10-10-10-10-10-10-10-10-10-10-10-10-10-10-10-10-|----------------

-|-------9-|-10-10-10-10-10-10-10-10-10-10-10-10-10-10-10-10-|----------------

-|---------|--8--8--8--8--8--8--8--8--8--8--8--8--8--8--8--8-|----------------

-|--8--8---|-------------------------------------------------|----------------

G1+G2 On a lip late take off

 

-|-----------------|-----------------|-----------------|-----------------|----

-|-----------------|-----------------|-----------------|-----------------|----

-|-----------------|-----------------|-----------------|-----------------|----

-|-7-7-7-7-7-7-7-7-|-7-7-7-7-7-7-7-7-|-7-7-7-7-7-7-7-7-|-----------------|----

-|-0-0-0-0-0-0-0-0-|-9-9-9-9-9-9-9-9-|-7-7-7-7-7-7-7-7-|-7-7-7-7-7-7-7-7-|----

-|-----------------|-----------------|-----------------|-8-8-8-8-8-8-8-8-|----

G1 Bombs dropping down over head on the ground it's in-

 

-|-----------------|-----------------|-----------------|-----------------|----

-|-----------------|---------5-------|-0---------------|-----0-------0---|----

-|-9---------------|-------------5---|-----------------|-----------------|----

-|-7---------------|-----7-----------|-----------------|-----------------|----

-|-0---------------|-----------------|-----------------|-----------------|----

-|-----------------|-----------------|-----------------|-----------------|----

G2

 

-|-----------------|-----------------|-----------------|-----------------|----

-|-----------------|-----------------|-----------------|-----------------|----

-|-----------------|-----------------|-----------------|-----------------|----

-|-7-7-7-7-7-7-7-7-|-7-7-7-7-7-7-7-7-|-7-7-7-7-7-7-7-7-|-----------------|----

-|-0-0-0-0-0-0-0-0-|-9-9-9-9-9-9-9-9-|-7-7-7-7-7-7-7-7-|-7-7-7-7-7-7-7-7-|----

-|-----------------|-----------------|-----------------|-8-8-8-8-8-8-8-8-|----

G1 -stilled to wanna live

 

-|-----------------|-----------------|-----------------|-----------------|----

-|-----------------|---------5-------|-0---------------|-----------------|----

-|-9---------------|-------------5---|-----------------|-----------------|----

-|-7---------------|-----7-----------|-----------------|-----------------|----

-|-0---------------|-----------------|-----------------|-----------------|----

-|-----------------|-----------------|-----------------|-----------------|----

G2

 

-|-----------------|-----------------|-----------------|-----------------|----

-|-----------------|-----------------|-----------------|-----------------|----

-|-----------------|-----------------|-----------------|-----------------|----

-|-7-7-7-7-7-7-7-7-|-7-7-7-7-7-7-7-7-|-7-7-7-7-7-7-7-7-|-----------------|----

-|-0-0-0-0-0-0-0-0-|-9-9-9-9-9-9-9-9-|-7-7-7-7-7-7-7-7-|-7-7-7-7-7-7-7-7-|----

-|-----------------|-----------------|-----------------|-8-8-8-8-8-8-8-8-|----

G1 Bombs dropping down please for-give our home town in our

 

-|-----------------|-----------------|-----------------|-----------------|----

-|-----------------|---------5-------|-0---------------|-----0-------0---|----

-|-9---------------|-------------5---|-----------------|-----------------|----

-|-7---------------|-----7-----------|-----------------|-----------------|----

-|-0---------------|-----------------|-----------------|-----------------|----

-|-----------------|-----------------|-----------------|-----------------|----

G2

 

-|-----------------|-----------------|-----------------|----------------------

-|-----------------|-----------------|-----------------|----------------------

-|-----------------|-----------------|-----------------|----------------------

-|-7-7-7-7-7-7-7-7-|-7-7-7-7-7-7-7-7-|-7-7-7-7-7-7-7-7-|----------------------

-|-0-0-0-0-0-0-0-0-|-9-9-9-9-9-9-9-9-|-7-7-7-7-7-7-7-7-|----------------------

-|-----------------|-----------------|-----------------|----------------------

G1 In - sig - nif - i -

 

-|-----------------|-----------------|-----------------|----------------------

-|-----------------|---------5-------|-0---------------|----------------------

-|-9---------------|-------------5---|-----------------|----------------------

-|-7---------------|-----7-----------|-----------------|----------------------

-|-0---------------|-----------------|-----------------|----------------------

-|-----------------|-----------------|-----------------|----------------------

G2

 

-|-------0--0--0---|---------0-0-0---|---------0-0-0---|---------0-0-0---|----

-|----0--8--8----0-|-------0-8-8-8-0-|-------0-8-8-8-0-|-------0-8-8-8-0-|----

-|-----------------|-----------------|-----------------|-----------------|----

-|-7---------------|-----------------|-----------------|-----------------|----

-|-0---------------|-----------------|-----------------|-----------------|----

-|-----------------|-----------------|-----------------|-----------------|----

G1 -cance

 

-|-----------------|-----------------|-----------------|-----------------|----

-|-----------------|--12-12-12-12-12-|-12/13--13-------|--13-13-13-12-10-|----

-|-9---------------|-----------------|-----------------|-----------------|----

-|-7---------------|-----------------|-----------------|-----------------|----

-|-0---------------|-----------------|-----------------|-----------------|----

-|-----------------|-----------------|-----------------|-----------------|----

G2

 

-|---------0-0-0---|---------0-0-0---|---------0-0-0---|---------0-0-0---|----

-|-------0-8-8-8-0-|-------0-8-8-8-0-|-------0-8-8-8-0-|-------0-8-8-8-0-|----

-|-----------------|-----------------|-----------------|-----------------|----

-|-----------------|-----------------|-----------------|-----------------|----

-|-----------------|-----------------|-----------------|-----------------|----

-|-----------------|-----------------|-----------------|-----------------|----

G1

 

-|-----------------|-----------------|-----------------|-----------------|----

-|-12--10-10-------|-----10-10\8-8---|-8----10---------|-----10-----0-12-|----

-|-----------------|---------------9-|---9-------------|-----------------|----

-|-----------------|-----------------|-----------------|-------10\7------|----

-|-----------------|-----------------|-----------------|-----------------|----

-|-----------------|-----------------|-----------------|-----------------|----

G2

 

-|-----------0-0-0---|----------0-0-0---|----------0-0-0---|------------------

-|---------0-8-8-8-0-|--------0-8-8-8-0-|--------0-8-8-8-0-|------------------

-|-------------------|------------------|------------------|------------------

-|-------------------|------------------|------------------|------------------

-|-------------------|------------------|------------------|------------------

-|-------------------|------------------|------------------|------------------

G1

 

-|-12-0-0-10-0-0-7-0-|-0-5-0-0-7-0-10-0-|-7-0-0-10-0-0-7-0-|------------------

-|-------------------|------------------|------------------|------------------

-|-------------------|------------------|------------------|------------------

-|-------------------|------------------|------------------|------------------

-|-------------------|------------------|------------------|------------------

-|-------------------|------------------|------------------|------------------

G2

 

-|----------0-0-0---|-----------0-0-0---|----------0-0-0---|------------------

-|--------0-8-8-8-0-|---------0-8-8-8-0-|--------0-8-8-8-0-|------------------

-|------------------|-------------------|------------------|------------------

-|------------------|-------------------|------------------|------------------

-|------------------|-------------------|------------------|------------------

-|------------------|-------------------|------------------|------------------

G1

 

-|-0-5-0-0-7-0-10-0-|-12-0-0-10-0-0-7-0-|-0-5-0-0-7-0-10-0-|------------------

-|------------------|-------------------|------------------|------------------

-|------------------|-------------------|------------------|------------------

-|------------------|-------------------|------------------|------------------

-|------------------|-------------------|------------------|------------------

-|------------------|-------------------|------------------|------------------

G2

 

-|------------0-0-0---|------------0-0-0---|--------0-0-0---|-----------------

-|----------0-8-8-8-0-|----------0-8-8-8-0-|------0-8-8-8-0-|-----------------

-|--------------------|--------------------|----------------|-----------------

-|--------------------|--------------------|----------------|-----------------

-|--------------------|--------------------|----------------|-----------------

-|--------------------|--------------------|----------------|-----------------

G1 Feel like res-

 

-|-12-0-0-10-0-0-7----|--------------7-----|----------------|-----------------

-|--------------------|----------------0-0-|----------------|-----------------

-|--------------------|--------------------|----------------|-----------------

-|--------------------|--------------------|-9---10---10/12-|-----------------

-|--------------------|--------------------|----------------|-----------------

-|--------------------|--------------------|----------------|-----------------

G2

 

-|-------0-0-0---|-------0-0-0---|--------------0-0-0---|---------------|-----

-|-----0-8-8-8-0-|-----0-8-8-8-0-|------------0-8-8-8-0-|---------------|-----

-|---------------|---------------|----------------------|---------------|-----

-|---------------|---------------|----------------------|---------------|-----

-|---------------|---------------|----------------------|---------------|-----

-|---------------|---------------|----------------------|---------------|-----

G1 -onance of distance In the blood

 

-|---------------|---------------|----------------------|---------------|-----

-|---------------|---------------|----------------------|---------------|-----

-|---------------|---------------|--------12-12-12-12-0-|---------------|-----

-|--10----9--10--|-10/14--14-----|----------------------|-9---10---10/12|-----

-|---------------|---------------|----------------------|---------------|-----

-|---------------|---------------|----------------------|---------------|-----

G2

 

-|---------------|---------19b20v|vvvvvvvvvvvvvvvvvvvv|vvvvvvvvvvvvv---|------

-|---------------|---------------|--------------------|----------------|------

-|---------------|---------------|--------------------|----------------|------

-|---------------|---------------|--------------------|----------------|------

-|---------------|---------------|--------------------|----------------|------

-|---------------|---------------|--------------------|----------------|------

G1 The iron lies

 

-|---------------|---------------|--------------------|----------------|------

-|---------------|---------------|--------------------|----------------|------

-|---------------|---------------|--------------------|----------------|------

-|--10----9--10--|-10/14--14-----|-14/17--17-17-17-17-|-17/19----------|------

-|---------------|---------------|--------------------|-------0--------|------

-|---------------|---------------|--------------------|----------------|------

G2

 

-|--------------------|-------19b20vvvvv|vvvvvvvvvvvvvvvvv----|---------------

-|--------------------|-----------------|---------------------|---------------

-|--------------------|-----------------|---------------------|---------------

-|--------------------|-----------------|---------------------|---------------

-|--------------------|-----------------|---------------------|---------------

-|--------------------|-----------------|---------------------|---------------

G1

 

-|--------------------|-----------------|---------------------|---------------

-|--10/12-12-12-10-12-|-12/13-13--------|------13-17-17-17-17-|---------------

-|--------------------|-----------------|---------------------|---------------

-|--------------------|-----------------|---------------------|---------------

-|--------------------|-----------------|---------------------|---------------

-|--------------------|-----------------|---------------------|---------------

G2

 

-|-------------------------|-------------------------|------------------------

-|-------------------------|-------------------------|------------------------

-|-------------------------|-------------------------|------------------------

-|--7--7--7--7--7--7--7--7-|-------------------------|------------------------

-|--0--0--0--0--0--0--0--0-|--7--7--7--7--7--7--7--7-|------------------------

-|-------------------------|--8--8--8--8--8--8--8--8-|------------------------

G1

 

-|-17-------17-------17----|-------------------------|------------------------

-|----17-------17-------17-|-------------------------|------------------------

-|-------17-------17-------|-17-17-17-17-17-17-17-17-|------------------------

-|-------------------------|-------------------------|------------------------

-|-------------------------|-------------------------|------------------------

-|-------------------------|-------------------------|------------------------

G2

 

-|-------------------------|-------------------------|------------------------

-|-------------------------|-------------------------|------------------------

-|-------------------------|-------------------------|------------------------

-|-------------------------|-------------------------|------------------------

-|--7--7--7--7--7--7--7--7-|--7--7--7--7--7--7--7--7-|------------------------

-|--7--7--7--7--7--7--7--7-|--8--8--8--8--8--8--8--8-|------------------------

G1

 

-|-17-------17-------17----|-17-17-17-17-17-17-17-17-|------------------------

-|-------------------------|-------------------------|------------------------

-|----17-17----17-17----17-|-------------------------|------------------------

-|-------------------------|-------------------------|------------------------

-|-------------------------|-------------------------|------------------------

-|-------------------------|-------------------------|------------------------

G2

 

-|-------------------------|-------------------------|------------------------

-|-------------------------|-------------------------|------------------------

-|-------------------------|-------------------------|------------------------

-|--7--7--7--7--7--7--7--7-|--7--7--7--7--7--7--7--7-|------------------------

-|--0--0--0--0--0--0--0--0-|--9--9--9--9--9--9--9--9-|------------------------

-|-------------------------|-------------------------|------------------------

G1

 

-|-------------------------|-------------------------|------------------------

-|-17-17-17-17-17-17-17-17-|-17-16-16-16-16-16-16-16-|------------------------

-|-------------------------|-------------------------|------------------------

-|-------------------------|-------------------------|------------------------

-|-------------------------|-------------------------|------------------------

-|-------------------------|-------------------------|------------------------

G2

 

-|-------------------------|-------------------------|------------------------

-|-------------------------|-------------------------|------------------------

-|-------------------------|-------------------------|------------------------

-|--7--7--7--7--7--7--7--7-|-------------------------|------------------------

-|--7--7--7--7--7--7--7--7-|--7--7--7--7--7--7--7--7-|------------------------

-|-------------------------|--8--8--8--8--8--8--8--8-|------------------------

G1 It's in-

 

-|-------------------------|-------------------------|------------------------

-|-17-17-17-17-17-17-17-17-|-17-13-13-13-13-13-13-13-|------------------------

-|-------------------------|-------------------------|------------------------

-|-------------------------|-------------------------|------------------------

-|-------------------------|-------------------------|------------------------

-|-------------------------|-------------------------|------------------------

G2

 

-|-------------------------|-------------------------|------------------------

-|-------------------------|-------------------------|------------------------

-|-------------------------|-------------------------|------------------------

-|--7--7--7--7--7--7--7--7-|--7--7--7--7--7--7--7--7-|------------------------

-|--0--0--0--0--0--0--0--0-|--9--9--9--9--9--9--9--9-|------------------------

-|-------------------------|-------------------------|------------------------

G1 -stilled to wanna

 

-|-------------------------|-------------------------|------------------------

-|-17-17-17-17-17-17-17-17-|-17-16-16-16-16-16-16-16-|------------------------

-|-------------------------|-------------------------|------------------------

-|-------------------------|-------------------------|------------------------

-|-------------------------|-------------------------|------------------------

-|-------------------------|-------------------------|------------------------

G2

 

-|-------------------------|-------------------------|------------------------

-|-------------------------|-------------------------|------------------------

-|-------------------------|-------------------------|------------------------

-|--7--7--7--7--7--7--7--7-|-------------------------|------------------------

-|--7--7--7--7--7--7--7--7-|--7--7--7--7--7--7--7--7-|------------------------

-|-------------------------|--8--8--8--8--8--8--8--8-|------------------------

G1 Live

 

-|-------------------------|-------------------------|------------------------

-|-17-17-17-17-17-17-17-17-|-17-13-13-13-13-13-13-13-|------------------------

-|-------------------------|-------------------------|------------------------

-|-------------------------|-------------------------|------------------------

-|-------------------------|-------------------------|------------------------

-|-------------------------|-------------------------|------------------------

G2

 

-|-----------------|-----------------|-----------------|-----------------|----

-|-----------------|-----------------|-----------------|-----------------|----

-|-----------------|-----------------|-----------------|-----------------|----

-|-7-7-7-7-7-7-7-7-|-7-7-7-7-7-7-7-7-|-7-7-7-7-7-7-7-7-|-----------------|----

-|-0-0-0-0-0-0-0-0-|-9-9-9-9-9-9-9-9-|-7-7-7-7-7-7-7-7-|-7-7-7-7-7-7-7-7-|----

-|-----------------|-----------------|-----------------|-8-8-8-8-8-8-8-8-|----

G1 Bombs dropping down please forgive our home town in our

 

-|-----------------|-----------------|-----------------|-----------------|----

-|-----------------|---------5-------|-0---------------|-----0-------0---|----

-|-9---------------|-------------5---|-----------------|-----------------|----

-|-7---------------|-----7-----------|-----------------|-----------------|----

-|-0---------------|-----------------|-----------------|-----------------|----

-|-----------------|-----------------|-----------------|-----------------|----

G2

 

-|-----------------|-----------------|-----------------|-----------------|----

-|-----------------|-----------------|-----------------|-----------------|----

-|-----------------|-----------------|-----------------|-----------------|----

-|-7-7-7-7-7-7-7-7-|-7-7-7-7-7-7-7-7-|-7-7-7-7-7-7-7-7-|-----------------|----

-|-0-0-0-0-0-0-0-0-|-9-9-9-9-9-9-9-9-|-7-7-7-7-7-7-7-7-|-7-7-7-7-7-7-7-7-|----

-|-----------------|-----------------|-----------------|-8-8-8-8-8-8-8-8-|----

G1 In - sig - nif - i - cance oh in our

 

-|-----------------|-----------------|-----------------|-----------------|----

-|-----------------|---------5-------|-0---------------|-0---------------|----

-|-9---------------|-------------5---|-----------------|-----------------|----

-|-7---------------|-----7-----------|-----------------|-----------------|----

-|-0---------------|-----------------|-----------------|-----------------|----

-|-----------------|-----------------|-----------------|-----------------|----

G2

 

-|-----------------|-----------------|-----------------|-----------------|----

-|-----------------|-----------------|-----------------|-----------------|----

-|-----------------|-----------------|-----------------|-----------------|----

-|-7-7-7-7-7-7-7-7-|-7-7-7-7-7-7-7-7-|-7-7-7-7-7-7-7-7-|-----------------|----

-|-0-0-0-0-0-0-0-0-|-9-9-9-9-9-9-9-9-|-7-7-7-7-7-7-7-7-|-7-7-7-7-7-7-7-7-|----

-|-----------------|-----------------|-----------------|-8-8-8-8-8-8-8-8-|----

G1 In - sig - nif - i - cance oh

 

-|-----------------|-----------------|-----------------|-----------------|----

-|-----------------|---------5-------|-0---------------|-----0-------0---|----

-|-9---------------|-------------5---|-----------------|-----------------|----

-|-7---------------|-----7-----------|-----------------|-----------------|----

-|-0---------------|-----------------|-----------------|-----------------|----

-|-----------------|-----------------|-----------------|-----------------|----

G2

 

-|-----------------|-----------------|-----------------|----------||----------

-|-----------------|-----------------|-----------------|----------||----------

-|-----------------|-----------------|-----------------|----------||----------

-|-7-7-7-7-7-7-7-7-|-7-7-7-7-7-7-7-7-|-7-7-7-7-7-7-7-7-|-----9----||----------

-|-0-0-0-0-0-0-0-0-|-9-9-9-9-9-9-9-9-|-7-7-7-7-7-7-7-7-|----------||----------

-|-----------------|-----------------|-----------------|-8-8------||----------

G1

 

-|-----------------|-----------------|-----------------|----------||----------

-|-----------------|---------5-------|-0*--------------|----------||----------

-|-9---------------|-------------5---|-----------------|----------||----------

-|-7---------------|-----7-----------|-----------------|----------||----------

-|-0---------------|-----------------|-----------------|----------||----------

-|-----------------|-----------------|-----------------|----------||----------

G2 *let ring

 

 

 

Return to my to my Pearl Jam tabs page

The Tablature is Copyright its respective owners.

Sign Up For My Newsletter
Subscribe | Unsubscribe

Site Map | Disclaimer | Privacy Policy | Media Kit | Submissions/Corrections

Website © 2000-2014 mattsmusicpage.com. All rights reserved.

Legal & DMCA: Matt's Music Page has been providing lyrics and tabs in a legal way, paying royalties each year to a few organizations. Then, all lyrics and tabs were removed from the site. Now, there's a new owner to the site, which purchased it August 26, 2014, and he is in negotiation to obtain licensing from BMI at the moment. If you have a specific DMCA request -- please do not hesitate to contact me via the contact button on top. I will do my very best to keep this site fully legal.

Get our toolbar!

 

Starbucks You Are Here Coffee Mug/Cup KENTUCKY - Horses, Banjo, Blue, White
$19.99
Starbucks You Are Here Coffee Mug/Cup KENTUCKY - Horses, Banjo, Blue, White picture


KNOWLES ROCKWELL HERITAGE "THE BANJO PLAYER" FIRST EDITION 1989 PLATE COA
$5.99
KNOWLES ROCKWELL HERITAGE


Vintage Postcard 1981 Disney World Banjo Kings Main Street USA 1981 Postmark
$4.99
 Vintage Postcard 1981 Disney World Banjo Kings Main Street USA 1981 Postmark picture


Banjo Barometer With Thermometer Hygrometer 490mm
$84.76
Banjo Barometer With Thermometer Hygrometer 490mm picture


ANTIQUE JAPANESE NIPPON FIGURINE SET OF 3 WOMEN GEISHA PLAYING DRUM BANJO FAN
$24.0
ANTIQUE JAPANESE NIPPON FIGURINE SET OF 3 WOMEN GEISHA PLAYING DRUM BANJO FAN picture