Your One-Stop Source For
Music Lyrics
Bass and Guitar Tabs
and More...
Music Lyrics Bass and Guitar Tabs

 

The Tabs Are Below

Learn To Read Tab
Chords Handbook
Corrections & Additions
Get Official Tab
Pearl Jam tabs @ 911Tabs

 

I Got ID

Pearl Jam

 

 

KEY:

oX Strum lightly

X_\ Hold previous note(s) and slide up

 

INTRO: Repeat 3 times with slight variations

 

e|5--o5-5--55-6-6o6-5-55-66o6--5-5-5__\-3---o3--o3o3-3----------------------|

b|7-----7--77-6-6o6-7-77-66o6--7-7-7__\-5---o5--o5o5-5----------------------|

g|7-----7--77-7-7o7-7-77-77o7--7-7-7__\-5-o5o5o5o5o5-5----------------------|

d|0--------0--0-----0----0-----0--------0-o0--o0----------------------------|

a|--------------------------------------------------------------------------|

E|--------------------------------------------------------------------------|

 

Part just before it breaks into the heavy stuff:

 

e|5--o5-5--55-6-6o6-5-55-66o6--5-5-5__\-3-3-3-3-3-3-3-3-3-3-3-3-3-----------|

b|7-----7--77-6-6o6-7-77-66o6--7-7-7__\-5-5-5-5-5-5-5-5-5-5-5-5-5-----------|

g|7-----7--77-7-7o7-7-77-77o7--7-7-7__\-5-5-5-5-5-5-5-5-5-5-5-5-5-----------|

d|0--------0--0-----0----0-----0--------0-----0-0-0-0-0-0-0-0-0-0-----------|

a|--------------------------------------------------0-0-0-5-5-5-5-----------|

E|--------------------------------------------------------------------------|

 

Basic chord progression: Bm F# G repeat 4 times

Actual Chords:

Bm F# G

I got e|-2----2-----3---|

memories b|-3----2-----3---|

I got shit g|-4----3-----4---|

so much d|-4----4-----5---|

it don't show a|-2----4-----5---|

E|------2-----3---|

 

I guess you would call this the chorus: repeats several times (bla bla bla)

It's definitely not exact!

 

e|2---2---0---0----0---0-----3-3-3-3-3--------------------------------------|

b|3----3--1----1---1---1-1---0-0-0-0-0--------------------------------------|

g|2-0---0-2-----2--0-0-0--0--0-0-0-0-0--------------------------------------|

d|0-------2-2------2-2-----2-0-0-0-0-0--------------------------------------|

a|--------0--------3-3-------2-2-2-2-2--------------------------------------|

E|---------------------------3-3-3-3-3--------------------------------------|

 

All of this is just the basic framework of the song, you'll repeat certain

parts, add some of your own stuff.

 

 

Date: Tue, 5 Dec 1995 19:24:47 -0800 (PST)

From: Graham Haworth

Subject: p/pearl_jam/i_got_id(shit).tab

 

Ok, this is the A-side to the Merkin Ball single. Stone, Mike, and Jeff

don't play on the song, but there's going to be a different version of it

on the new album, or so I've heard. Neil Young plays guitar on this

version, and Brendan O'Brien plays bass. Anyway, it's a great song. Here

it is:

 

Intro

-----

 

D D Dm D Dm D ?

e:|--2---2----1----2-----1----2----0------------

B:|--3---3----3----3-----3----3----1------------

G:|--2---2----2----2-----2----2----2------------

D:|--0---0----0----0-----0----0----0------------

A:|---------------------------------------------

E:|---------------------------------------------

 

This goes on for the begginning of the song, when Eddie sings "My lips

are shaking...." On the last time through, strum a C chord taking you

into the...

 

Verse

-----

 

This part's easy. Just three chords.

EADGBe

Bm x24432

F# 244322

G 320022

 

Chorus

------

Ok, I'm pretty sure this part's right. Four chords:

 

EADGBe

D x00232

Am x02210

C x30210

G 320022

 

 

And that's it! Here's the order you play everything in:

 

Intro x4

Verse x4

Chorus x2

Intro x2 during guitar solo

Intro x2

Verse x4

Chorus x4

Intro x9

 

--------------------------------------------------------------------------------

I Got ID

Pearl Jam

 

INTRO: (Is also played throughout the song as well as the solo)

 

e|--10------10-10-10-10-10-10-10-10-10-10-10-10-10-10-10---8--------|

b|--10------10-10-10-10-11-11-10-10-10-10-10-11-11-10-10---8--------|

g|o-11------11-11----11-10----11-11-------11-10----11-11---9--9--9-o|

d|o-12------12-12----12-12----12-12-------12-12----12-12--10-10-10-o|

a|------------------------------------------------------------------|

e|------------------------------------------------------------------|

 

 

PRE-CHORUS: (Loud powerchords with a'la Neil Young distortion)

B F# G

x x x

x x x

x x x

9 4 5

9 4 5

7 2 3

 

CHORUS: (I believe it's two guitars, Guitar 1 plays the power chords,

and Guitar 2 plays the open chord arpeggio's)

 

Guitar 1: Plays the power chords in this order:

D A C G

x x x x

x x x x

7 x x x

7 7 10 5

5 7 10 5

x 5 8 3

 

Guitar 2: Plays the open chords in this order:

D Am C G

2 0 0 3

3 1 1 3

2 2 0 0

0 2 2 0

x 0 3 2

x x x 3

 

SOLO:

You pretty much play the intro over and over again, but you

emphasize the key notes, improvise it it's not hard at all...

 

--------------------------------------------------------------------------------

I Got ID

Pearl Jam

 

e-----0---------------10---------0----------------10----------0----------8-----

B----10---------------11--------10----------------11---------10----------8-----

G----11---------------10--------11----------------10---------11----------9-----

D-----0---------------0----------0-----------------0----------0----------0-----

A------------------------------------------------------------------------------

E------------------------------------------------------------------------------

 

repeat this riff for the verses but strum in between each chord change a few

times.

 

The Bridge or Pre-Chorus goes like this:

 

"Once, I could feel loved . . . . . . . "

 

e--2---2-2---2-2-2----2--2-x----3----3---3---------------------------------

B--3---3-3---3-3-3----2--2-x----3----3---3---------------------------------

G--4---4-4---4-4-4----3--3-x----4----4---4---------------------------------

D--4---4-4---4-4-4----4--4-x----5----5---5---------------------------------

A--2---2-2---2-2-2----4--4-x----5----5---5---------------------------------

E--x---x-x---x-x-x----2--2-x----3----3---3---------------------------------

 

you can add a few strums too each chord. repeat it four times

 

Then the Chorus goes:

 

"I walked in line , will you help me in real life . . . "

 

e--5-5-5-5-5-5-5-5---5------------------8---------------3----

B--7-7-7-7-7-7-7-7---5------------------8---------------3----

G--7-7-7-7-7-7-7-7---5------------------9---------------4----

D--7-7-7-7-7-7-7-7---7-----------------10---------------5----

A--5-5-5-5-5-5-5-5---7-----------------10---------------5----

E--x-x-x-x-x-x-x-x---5------------------8---------------3----

 

each chord recieves eight even strums.

 

THe solo:

 

just mess around with these notes:

 

e-10-----12--13------

B-10-11--12--13------

G-10-11--12--13------

D-10-----12----------

A-10-----12----------

 

a COMMON RIFF in this solo is:

 

e----------------------------------------------------------------

B-11--10--------------11--10-------------11--10------------------

G---------12--11--10----------12--11--10--------12--11--10-s-8---

D----------------------------------------------------------------

 

 

Return to my to my Pearl Jam tabs page

The Tablature is Copyright its respective owners.

Sign Up For My Newsletter
Subscribe | Unsubscribe

Site Map | Disclaimer | Privacy Policy | Media Kit | Submissions/Corrections

Website © 2000-2014 mattsmusicpage.com. All rights reserved.

Legal & DMCA: Matt's Music Page has been providing lyrics and tabs in a legal way, paying royalties each year to a few organizations. Then, all lyrics and tabs were removed from the site. Now, there's a new owner to the site, which purchased it August 26, 2014, and he is in negotiation to obtain licensing from BMI at the moment. If you have a specific DMCA request -- please do not hesitate to contact me via the contact button on top. I will do my very best to keep this site fully legal.

Get our toolbar!

 

1983 SEALED LP Return of the Jedi + 1977 Star Wars Vinyl 2 Record Set - Sci-Fi
$22.5
1983 SEALED LP Return of the Jedi + 1977 Star Wars Vinyl 2 Record Set - Sci-Fi picture


Frank Sinatra - Swingin Lovers & Sept of My Years (Reprise)[LP-Vinyl] RECORDS
$10.0
Frank Sinatra - Swingin Lovers & Sept of My Years (Reprise)[LP-Vinyl] RECORDS picture


Ion Audio Turntable & Vinyl Record Archiver with USB Connector TTUSB10 - EUC
$59.99
Ion Audio Turntable & Vinyl Record Archiver with USB Connector TTUSB10 - EUC picture


Vintage 1975 LP Big Rig Truckers LP Put the Hammer Down - Vinyl Record
$15.99
Vintage 1975 LP Big Rig Truckers LP Put the Hammer Down - Vinyl Record picture


1970`s Sanrio HELLO KITTY Vinyl Record STICKERS Vintage VERY RARE
$0.99
1970`s Sanrio HELLO KITTY Vinyl Record STICKERS Vintage VERY RARE picture