Your One-Stop Source For
Music Lyrics
Bass and Guitar Tabs
and More...
Music Lyrics Bass and Guitar Tabs

 

The Tabs Are Below

Learn To Read Tab
Chords Handbook
Corrections & Additions
Get Official Tab
Pearl Jam tabs @ 911Tabs

 

Author/Artist: Temple Of The Dog

Title: Say Hello 2 Heaven

Album: Temple Of The Dog

Transcribed by: Evan Cowan

Email: icowan@marin.k12.ca.us

 

-|-----3-----3-----3-----3-------0-----------0------|-------------------------

-|---3-----3-----3-----3-------3---3-------3---3----|-------------------------

-|---------------------------0-------0---0-------0--|-------------------------

-|-3-----3-----2-----2------------------------------|-------------------------

-|-------------------------1-----------0------------|-------------------------

-|--------------------------------------------------|-------------------------

Intro, G1

 

-|-----3-----3-------0---------0-----0-------0------|-------------------------

-|---3-----3-------3---3-------------------3---3----|-------------------------

-|---------------0-------0---0-----0-----0-------0--|-------------------------

-|--------------------------------------------------|-------------------------

-|-3-----3-----2------------------------------------|-------------------------

-|-------------------------1-----1-----0------------|-------------------------

 

 

-|-1--1---4--4---3----1--1---4--4---3------------1--1---4--4--|---------------

-|-1--1---4--4---3----1--1---4--4---3------------1--1---4--4--|---------------

-|-2--2---5--5---4----2--2---5--5---4------------2--2---5--5--|---------------

-|-3--3---6--6---5----3--3---6--6---5------------3--3---6--6--|---------------

-|-3--3---6--6---5----3--3---6--6---5------------3--3---6--6--|---------------

-|-1--1---4--4---3----1--1---4--4---3------------1--1---4--4--|---------------

G1

 

-|-1--1---4------3----1--1---4------3------3-----1--1---4--4--|---------------

-|-1--1-----4----3----1--1-----4----3--------3---1--1---4--4--|---------------

-|-2--2-------5--4----2--2-------5--4----------4-2--2---5--5--|---------------

-|-3--3----------5----3--3----------5----5-------3--3---6--6--|---------------

-|-3--3----------5----3--3----------5------------3--3---6--6--|---------------

-|-1--1----------3----1--1----------3------------1--1---4--4--|---------------

G2

 

-|----------------------------------------------------------------|-----------

-|----------------------------------------------------------------|-----------

-|-------------------------2------0-------------------------------|-----------

-|---------0---------------2------2------------------2------------|-----------

-|---------5---------------0------3------------------2------------|-----------

-|---------3-----------------------------------------0------------|-----------

Verse, G1 "Please, mother mercy, take me, from this place..."

 

-|-----------------------------------------------|----------------------------

-|--------------------1-1-0----------------------|----------------------------

-|------2----0----2---2-2-0-------2----0---------|----------------------------

-|-0----2----2----3---3-3-0--0----2----2----2----|----------------------------

-|-5----0----3----3---3-3----5----0----3----2----|----------------------------

-|-3--------------1----------3--------------0----|----------------------------

 

 

-|----------------1--------------------|-------3----------------------|-------

-|----------------1----1-1p0-----------|-----3---3---------1h3p1------|-------

-|------2----0----2----------2--2p0----|---0-------0-----2-------2----|-------

-|-0----2----2----3-----------------3--|---------------2--------------|-------

-|-5----0----3----3--------------------|-------------0-------------0--|-------

-|-3--------------1--------------------|-3----------------------------|-------

Verse, G2

 

-|-------0-----------0-----|-------3---------------------------0------|-------

-|-----1---1-------0---0---|-----3---3---------1h3p1---------1---1----|-------

-|---0-------0---0-------0-|---0-------0-----2-------2-----0-------0--|-------

-|-------------------------|---------------2--------------------------|-------

-|-3-----------------------|-------------0-------------0-3------------|-------

-|-------------0-----------|-3----------------------------------------|-------

 

 

-|-1----------------|-------3---------------------------3-----------0------|--

-|-1--------1-------|-----3---3---------1h3p1---------1---1-------0---0----|--

-|-2----0h2-----0-0-|---0-------0-----2-------2-----0-------0---0-------0--|--

-|-3----------------|---------------2--------------------------------------|--

-|-3----------------|-------------0-------------0-3------------------------|--

-|-1----------------|-3---------------------------------------0------------|--

 

 

-|-------3---------------------------3------1--------|------------------------

-|-----3---3---------1h3p1---------1---1----1---1----|------------------------

-|---0-------0-----2-------2-----0-------0--2-----0--|------------------------

-|---------------2--------------------------3-----0--|------------------------

-|-------------0-------------0-3------------3--------|------------------------

-|-3----------------------------------------1--------|------------------------

 

 

-|-----3-----3-----3-----3-------0-----------0------|-------------------------

-|---3-----3-----3-----3-------3---3-------3---3----|-------------------------

-|---------------------------0-------0---0-------0--|-------------------------

-|--------------------------------------------------|-------------------------

-|-3-----3-----2-----2------------------------------|-------------------------

-|-------------------------1-----------0------------|-------------------------

Pre-chorus, G1

 

-|------3---3---------3---3-------3---3------3---3---3--|---------------------

-|----3---3---------3---3-----------3---3----3---3---3--|---------------------

-|------------0--0----------0-------------0--0---0---0--|---------------------

-|-0-------------x-------------2-------------x---x---x--|---------------------

-|-x-------------2-------------0-------------3---3---3--|---------------------

-|-3----------------------------------------------------|---------------------

 

 

-|-----------------------------------------------|----------------------------

-|-----------------------------------------------|----------------------------

-|-0----0--------------0----0---------0---0---0--|----------------------------

-|-5----5--------------0----x----2----2---2---2--|----------------------------

-|-3----2----3----2----x----2----0----3---3---3--|----------------------------

-|-----------1----0----3-------------------------|----------------------------

Pre-Chorus, G2

 

-|------3----------------|-------3-----------2---------|----------------------

-|--------3----3---------|-----3---3-------3---3-------|----------------------

-|-------------2----3----|---0-------0---2-------2-----|----------------------

-|-0--------0--0----2----|-------------0-----------2---|----------------------

-|-x----------------3----|-------------------------3---|----------------------

-|-3---------------------|-3---------------------------|----------------------

Chorus, G1 2x Chorus, G2

 

-|-------3-------------------------|-1--1---4--4--|--------------4--|---------

-|-----3---3-------3-0h3p0---------|-1--1---4--4--|-----------4-----|---------

-|---0-------0---2---------0-------|-2--2---5--5--|-----------5-----|---------

-|-------------0--------------2----|-3--3---6--6--|-3--3------6-----|---------

-|----------------------------3----|-3--3---6--6--|-3--3------6-----|---------

-|-3-------------------------------|-1--1---4--4--|-1--1-1-1--4-----|---------

G1 G2

 

-|-3-------------------------------------1--------|---------------------------

-|-3-------------------3-----------------1---1----|---------------------------

-|-4---------0---------0--------2-0-0----2---2-0--|---------------------------

-|-5----2----2---------0----2---2-0-2----3---3-0--|---------------------------

-|-5----0----3----2----x----0-------3----3--------|---------------------------

-|-3--------------0----3-----------------1--------|---------------------------

2nd Verse, G1

 

-|-----------------------------------1---1-----------------|------------------

-|---------------------3-------------1---1---1-1p0---------|------------------

-|-0----2----0---------0---------0---2---2-----------2p0---|------------------

-|-0----2----2---------0----2----2---3---3---------------3-|------------------

-|-x----0----3---------x----0----3---3---------------------|------------------

-|-3--------------0----3-------------1---------------------|------------------

 

 

-|-------3-----------------------3----------|-------3----------------------|--

-|-----3---3---------1---------1---1--------|-----3---3---------1h3p1------|--

-|---0-------0-----2---2-----0-------0------|---0-------0-----2-------2----|--

-|---------------2--------------------------|---------------2--------------|--

-|-------------0---------0-3----------------|-------------0-------------0--|--

-|-3-----------------------------------0----|-3----------------------------|--

Verse, G2

 

-|-------0---------------|-------3---------------------------0-----|----------

-|-----1---1-------------|-----3---3---------1h3p1---------1---1---|----------

-|---0-------0------0h2--|---0-------0-----2-------2-----0-------0-|----------

-|-------------3---------|---------------2-------------------------|----------

-|-3-----------3---------|-------------0-------------0-3-----------|----------

-|-------------1---------|-3---------------------------------------|----------

 

 

-|-------0-----------3-----------------------0----------------------|---------

-|-----0---0-------3---3---------1---------1---1--------1-1----1----|---------

-|---0-------0---0-------0-----2---2-----0-------0--2---0-0h2--2p0--|---------

-|---------------------------2-------2--------------3---------------|---------

-|-------------------------0-----------3------------3---------------|---------

-|-0-----------3------------------------------------1---------------|---------

 

 

-|-----3-----3-----3-----3-------0-----------0------|-------------------------

-|---3-----3-----3-----3-------3---3-------3---3----|-------------------------

-|---------------------------0-------0---0-------0--|-------------------------

-|--------------------------------------------------|-------------------------

-|-3-----3-----2-----2------------------------------|-------------------------

-|-------------------------1-----------0------------|-------------------------

Pre-Chorus, G1

 

-|------3---3---------3---3-------3---3-------3---3---3--|--------------------

-|----3---3---------3---3-----------3---3-----3---3---3--|--------------------

-|------------0--0----------0-------------0---0---0---0--|--------------------

-|-0-------------x-------------2--------------x---x---x--|--------------------

-|-x-------------2-------------0--------------3---3---3--|--------------------

-|-3-----------------------------------------------------|--------------------

 

 

-|-----------------------------------------------|----------------------------

-|-1----0----------------------------------------|----------------------------

-|-0-------------------0----0---------0---0---0--|----------------------------

-|-2-------------------0----x----2----2---2---2--|----------------------------

-|-3----2----3----2----x----2----0----3---3---3--|----------------------------

-|-----------1----0----3-------------------------|----------------------------

Pre-Chorus, G2

 

-|-----3---------2h3p2------------|----3--------------|----3----------------|-

-|-------3----3-------------------|------3----3-------|---------3--3-3-3----|-

-|------------2------------3---3--|-----------2----3--|---------2--2-2-2-3--|-

-|-0-------0--0--------0---2---2--|-0------0--0----2--|-0----0--0--0-0-0-2--|-

-|-x-----------------------3---3--|-x--------------3--|-x----------------3--|-

-|-3------------------------------|-3-----------------|-3-------------------|-

2nd Chorus, G1

 

-|-------3-----------------------|---------------------------|----------------

-|-----3---3-------3-0h3p0-------|-----3---------0h3p0-------|----------------

-|---0-------0---2---------0-----|---0--------2--------0--0--|----------------

-|-------------0--------------2--|---------0--0-----------2--|----------------

-|----------------------------3--|------------------------3--|----------------

-|-3-----------------------------|-3-------------------------|----------------

2nd Chorus, G2

 

-|-------3-----------2h3p2-2-------|------------------------------------------

-|-----3---3-------3---------3-----|------------------------------------------

-|---0-------0---2--------------0--|------------------------------------------

-|-------------0----------------2--|------------------------------------------

-|------------------------------3--|------------------------------------------

-|-3-------------------------------|------------------------------------------

 

 

-|----0--------3----------------------|--1-----4-----3----|-------------------

-|----0--------3--------1-------------|--1-----4-----3----|-------------------

-|----0--------0--------3-------------|--2-----5-----4----|-------------------

-|----2--------0--------2-------------|--3-----6-----5----|-------------------

-|----2--------2--------3-------------|--3-----6-----5----|-------------------

-|----0--------3----------------------|--1-----4-----3----|-------------------

Solo,G1(strum through all chords) 3x

 

-|----------------------------|--------------|--------------------------------

-|--3----------1----1----1----|------3----1--|--------------------------------

-|--0----2-----0----0----0----|-0----2----0--|--------------------------------

-|--x----2-----2----2----2----|-0----0----2--|--------------------------------

-|--2----0-----3----3----3----|-x---------3--|--------------------------------

-|----------------------------|-3------------|--------------------------------

 

 

-|----------------------------------------------------------------|-----------

-|---------------------------------------15----15----15----15-----|-----------

-|-----------------------------------12----b16r--b16r--b16r--b16r-|-----------

-|------------------------12---12h14------------------------------|-----------

-|-------10-10--12-10-/14-----------------------------------------|-----------

-|-10h12----------------------------------------------------------|-----------

Solo, G2 Pre-bends, half release

 

-|-15-12-------------------------15-12------------------------|---------------

-|-------15-12-------------------------15-12------------------|---------------

-|-------------14-12-12-12-12-12-------------14-12---12-14-12-|---------------

-|------------------------------------------------------------|---------------

-|------------------------------------------------------------|---------------

-|------------------------------------------------------------|---------------

 

 

-|--------------------------------------------------------------12h15-15--|---

-|-------------------------------------------------/15-12-15-12-----------|---

-|-14b16--16-16-16r14-12----12-12-14b16r14p12-14vv\-----------------------|---

-|-----------------------14-----------------------------------------------|---

-|------------------------------------------------------------------------|---

-|------------------------------------------------------------------------|---

hold bend------|

 

-|-15-12-15-17b19-17b19---17b19-17b19-17b19-17b19-17b19r17-15-|---------------

-|------------------------------------------------------------|---------------

-|------------------------------------------------------------|---------------

-|------------------------------------------------------------|---------------

-|------------------------------------------------------------|---------------

-|------------------------------------------------------------|---------------

 

 

-|----------------------------------------------------|-----------------------

-|-15h17p15-------------------------------------------|-----------------------

-|-----------12-14-12----12-14b16-16-16r14-12vvvvvvvv-|-----------------------

-|--------------------14------------------------------|-----------------------

-|----------------------------------------------------|-----------------------

-|----------------------------------------------------|-----------------------

hold bend--|

 

-|--------------------12h15-15-15-15-12-15-15-15-15-15-12-|-------------------

-|--------------------------------------------------------|-------------------

-|-14b15-15-15-15r14--------------------------------------|-------------------

-|--------------------------------------------------------|-------------------

-|--------------------------------------------------------|-------------------

-|--------------------------------------------------------|-------------------

hold bend-----|

 

-|-------15-------15-------15---------15\--|----------------------------------

-|-15h17----15h17----15h17----15h17------\-|----------------------------------

-|-----------------------------------------|----------------------------------

-|-----------------------------------------|----------------------------------

-|-----------------------------------------|----------------------------------

-|-----------------------------------------|----------------------------------

 

 

-|---------------------------------5-/-7---|----------------------------------

-|-3---3------3---3---3-----3--------------|----------------------------------

-|-2b3-2b3r2--2b3-2b3-2b3r2-0----5---/-7---|----------------------------------

-|-----------------------------------------|----------------------------------

-|-----------------------------------------|----------------------------------

-|-----------------------------------------|----------------------------------

*hold bottom note, slide up w/o picking

 

-|-1--1---4--4--|-----------------------------------------------------------|-

-|-1--1---4--4--|-----------------------------------------3-----------------|-

-|-2--2---5--5--|-------------------------------0---------0---------0-------|-

-|-3--3---6--6--|-0----2----2--------------2----2---------0----2----2-------|-

-|-3--3---6--6--|-x----0----3--------------0----3----3----x----0----3----2--|-

-|-1--1---4--4--|-3--------------0----3--------------1----3--------------0--|-

Both Guitars Verse, G1

 

-|-------------------------------------------------------------------------|--

-|--8h10p8---10h12p10----------12---12------------8h10p8---10p8-12p10p8h10-|--

-|----------------------12-----12---12h14p12-------------------------------|--

-|----------------------12h14----------------14----------------------------|--

-|-------------------------------------------------------------------------|--

-|-------------------------------------------------------------------------|--

Verse, G2

 

-|-----------------13----|--0---------------------12------12----12--|---------

-|-----------------13----|--0h2----12p10----------12---------12-12--|---------

-|-10h12p10--10----14----|-----------------9------12----------------|---------

-|-----------10----------|-------------------10/--14---14-----------|---------

-|-----------------------|------------------------------------------|---------

-|-----------------------|------------------------------------------|---------

 

 

-|-------------------------------------------------|--------------------------

-|-------------------------1--1-1-1-1--1--1--1--1--|--------------------------

-|-4---4--4----------------0--0-0-0-0--0--0--0--0--|--------------------------

-|-5---5--5---3--3---4--4--2--2-2-2-2--2--2--2--2--|--------------------------

-|-5---5--5---1--1---2--2--3--3-3-3-3--3--3--3--3--|--------------------------

-|-3---3--3----------------------------------------|--------------------------

Pre-Chorus, both guitars

 

-|-------------------|-------3-----------2----------|----------------|--------

-|------3------------|-----3---3-------3---3--------|-3----3----1----|--------

-|-0----2----3-------|---0-------0---2-------2------|-0----2----0----|--------

-|-0----0----2-------|-------------0-----------2----|-0----0----2----|--------

-|-x---------3-------|-------------------------3----|-x---------3----|--------

-|-3-----------------|-3----------------------------|-3--------------|--------

Chorus, G1 (strum) Chorus, G2 2x (strum) 2x

 

-|-1--1---4--4---3----1--1---4--4---3----1--1---4--4--|-----------------------

-|-1--1---4--4---3----1--1---4--4---3----1--1---4--4--|-----------------------

-|-2--2---5--5---4----2--2---5--5---4----2--2---5--5--|-----------------------

-|-3--3---6--6---5----3--3---6--6---5----3--3---6--6--|-----------------------

-|-3--3---6--6---5----3--3---6--6---5----3--3---6--6--|-----------------------

-|-1--1---4--4---3----1--1---4--4---3----1--1---4--4--|-----------------------

G1

 

-|-1--1---4--4---3----1--1---4--4---3----1--1---4--4--|-----------------------

-|-1--1---4--4---3----1--1---4--4---3----1--1---4--4--|-----------------------

-|-2--2---5--5---4----2--2---5--5---4----2--2---5--5--|-----------------------

-|-3--3---6--6---5----3--3---6--6---5----3--3---6--6--|-----------------------

-|----------------------------------------------------|-----------------------

-|----------------------------------------------------|-----------------------

G2

 

-|-----3-----3-----3-----3-------0-----------0-------3----|-------------------

-|---3-----3-----3-----3-------3---3-------3---3-----3----|-------------------

-|---------------------------0-------0---0-------0---0----|-------------------

-|---------------------------------------------------0----|-------------------

-|-3-----3-----2-----2-------------------------------x----|-------------------

-|-------------------------1-----------0-------------3----|-------------------

Outro, G1

 

 

Return to my to my Pearl Jam tabs page

The Tablature is Copyright its respective owners.

Sign Up For My Newsletter
Subscribe | Unsubscribe

Site Map | Disclaimer | Privacy Policy | Media Kit | Submissions/Corrections

Website © 2000-2014 mattsmusicpage.com. All rights reserved.

Legal & DMCA: Matt's Music Page has been providing lyrics and tabs in a legal way, paying royalties each year to a few organizations. Then, all lyrics and tabs were removed from the site. Now, there's a new owner to the site, which purchased it August 26, 2014, and he is in negotiation to obtain licensing from BMI at the moment. If you have a specific DMCA request -- please do not hesitate to contact me via the contact button on top. I will do my very best to keep this site fully legal.

Get our toolbar!

 

Starbucks You Are Here Coffee Mug/Cup KENTUCKY - Horses, Banjo, Blue, White
$19.99
Starbucks You Are Here Coffee Mug/Cup KENTUCKY - Horses, Banjo, Blue, White picture


KNOWLES ROCKWELL HERITAGE "THE BANJO PLAYER" FIRST EDITION 1989 PLATE COA
$5.99
KNOWLES ROCKWELL HERITAGE


Vintage Postcard 1981 Disney World Banjo Kings Main Street USA 1981 Postmark
$4.99
 Vintage Postcard 1981 Disney World Banjo Kings Main Street USA 1981 Postmark picture


Banjo Barometer With Thermometer Hygrometer 490mm
$84.76
Banjo Barometer With Thermometer Hygrometer 490mm picture


ANTIQUE JAPANESE NIPPON FIGURINE SET OF 3 WOMEN GEISHA PLAYING DRUM BANJO FAN
$24.0
ANTIQUE JAPANESE NIPPON FIGURINE SET OF 3 WOMEN GEISHA PLAYING DRUM BANJO FAN picture