Your One-Stop Source For
Music Lyrics
Bass and Guitar Tabs
and More...
Music Lyrics Bass and Guitar Tabs

 

The Tabs Are Below

Learn To Read Tab
Chords Handbook
Corrections & Additions
Get Official Tab
Pearl Jam tabs @ 911Tabs

 

Author/Artist: Pearl Jam

Title: Hail, Hail

Album: No Code

Transcribed by: Evan Cowan

Email: icowan@marin.k12.ca.us

 

This is how i saw them play it on Letterman

 

-|----------------------------------------------------------------|---------|-

-|-3--3-3-1--1-1-2--2-2-3--3-3------------------------------------|---------|-

-|-2--2-2-2--2-2-x--x-x-x--x-x---------------5--5-5---------------|---------|-

-|-0--0-0-3--3-3-3--3-3-4--4-4-5--5-5-7--7-7-5--5-5-8--8-8--8-8-8-|-8--8-8--|-

-|---------------4--4-4-5--5-5-5--5-5-7--7-7-7--7-7-8--8-8--8-8-8-|-8--8-8--|-

-|-----------------------------3--3-3-5--5-5--------6--6-6--6-6-6-|-6--6-6--|-

Intro Repeat

 

-|----------|---------------------------------------------------------------|-

-|----------|---------------------------------------------------------------|-

-|----------|---------------------------------------------------------------|-

-|-8-8-8----|-5--5-5-5-5-5-5-5-5-5-5-5-8-8-8-5--5-5-5-5-5-5-5-5-5-5-5-8-8-8-|-

-|-8-8-8----|-5--5-5-5-5-5-5-5-5-5-5-5-8-8-8-5--5-5-5-5-5-5-5-5-5-5-5-8-8-8-|-

-|-6-6-6----|-3--3-3-3-3-3-3-3-3-3-3-3-6-6-6-3--3-3-3-3-3-3-3-3-3-3-3-6-6-6-|-

Verse p.m.----------------| p.m.------------------|

 

-|----------------------------------------------------------------|-----------

-|----------------------------------------------------------------|-----------

-|----------------------------------------------------------------|-----------

-|-5--5-5-8--8-8--8-8-8-8-5-5-5-8--8-8-8-8-8-8-8-8-8-8-8-10-10-10-|-----------

-|-5--5-5-8--8-8--8-8-8-8-5-5-5-8--8-8-8-8-8-8-8-8-8-8-8-10-10-10-|-----------

-|-3--3-3-6--6-6--6-6-6-6-3-3-3-6--6-6-6-6-6-6-6-6-6-6-6--8--8--8-|-----------

With Fill 1

 

-|------------------------|--------------------------------|------------------

-|------------------------|--------------------------------|------------------

-|-/17--/12---------------|--------------------------------|------------------

-|-/17--/12---x/-x\-------|-5--5-5-5-5-5-5-5-5-5-5-5-8-8-8-|------------------

-|------------x/-x\-------|-5--5-5-5-5-5-5-5-5-5-5-5-8-8-8-|------------------

-|------------x/-x\-------|-3--3-3-3-3-3-3-3-3-3-3-3-6-6-6-|------------------

Fill 1 (G2) hand scrape

 

-|-------------------------------------------------------------|--------------

-|-------------------------------------------------------------|--------------

-|-------------------------------------------------------------|--------------

-|-5--5-5-5-5-5-5-5-5-5-5-5-8-8-8-5--5-5-8--8-8--8-8-8-8-5-5-5-|--------------

-|-5--5-5-5-5-5-5-5-5-5-5-5-8-8-8-5--5-5-8--8-8--8-8-8-8-5-5-5-|--------------

-|-3--3-3-3-3-3-3-3-3-3-3-3-6-6-6-3--3-3-6--6-6--6-6-6-6-3-3-3-|--------------

 

 

-|--------------------------------|-----|------|------------------------------

-|--------------------------------|-----|-1--1-|------------------------------

-|--------------------------------|-----|-2--2-|------------------------------

-|-8--8-8-8-8-8-8-8-8-8-8-8-8-8-8-|-----|------|------------------------------

-|-8--8-8-8-8-8-8-8-8-8-8-8-8-8-8-|-----|------|------------------------------

-|-6--6-6-6-6-6-6-6-6-6-6-6-6-6-6-|-----|------|------------------------------

With Fill 2 Fill 2 (G2)

 

-|---------------------------------------------------------|------------------

-|-3--3-3-1--1-1-2--2-2-3--3-3-----------------------------|------------------

-|-2--2-2-2--2-2-x--x-x-x--x-x---------------5--5-5--------|------------------

-|-0--0-0-3--3-3-3--3-3-4--4-4-5--5-5-7--7-7-5--5-5-8--8-8-|------------------

-|---------------4--4-4-5--5-5-5--5-5-7--7-7-7--7-7-8--8-8-|------------------

-|-----------------------------3--3-3-5--5-5--------6--6-6-|------------------

Chorus

 

-|-----------------------------------------------------------------------|----

-|-3--3-3-1--1-1-2--2-2-3--3-3-------------------------------------------|----

-|-2--2-2-2--2-2-x--x-x-x--x-x---------------5--5-5----------------------|----

-|-0--0-0-3--3-3-3--3-3-4--4-4-5--5-5-7--7-7-5--5-5-8--8-8--8-8-8-8--8-8-|----

-|---------------4--4-4-5--5-5-5--5-5-7--7-7-7--7-7-8--8-8--8-8-8-8--8-8-|----

-|-----------------------------3--3-3-5--5-5--------6--6-6--6-6-6-6--6-6-|----

 

 

-|-------|-----------------------------------------------------------------|--

-|-------|-----------------------------------------------------------------|--

-|-------|-----------------------------------------------------------------|--

-|-8-8-8-|-5--5-5-5-5-5-5-5-5-5-5-5-8-8-8-5--5-5-5-5-5-5-5-5-5-5-5-8-8-8---|--

-|-8-8-8-|-5--5-5-5-5-5-5-5-5-5-5-5-8-8-8-5--5-5-5-5-5-5-5-5-5-5-5-8-8-8---|--

-|-6-6-6-|-3--3-3-3-3-3-3-3-3-3-3-3-6-6-6-3--3-3-3-3-3-3-3-3-3-3-3-6-6-6---|--

Verse 2

 

-|---------------------------------------------------------------|------------

-|---------------------------------------------------------------|------------

-|---------------------------------------------------------------|------------

-|-5--5-5-8--8-8--8-8-8-8-5-5-5-8--8-8--8-8-8-8-8-8-8-8-10-10-10-|------------

-|-5--5-5-8--8-8--8-8-8-8-5-5-5-8--8-8--8-8-8-8-8-8-8-8-10-10-10-|------------

-|-3--3-3-6--6-6--6-6-6-6-3-3-3-6--6-6--6-6-6-6-6-6-6-6--8--8--8-|------------

With Fill 1

 

-|---------------------------------------------------------------|------------

-|---------------------------------------------------------------|------------

-|---------------------------------------------------------------|------------

-|-5--5-5-5-5-5-5-5-5-5-5-5-8-8-8-5--5-5-5-5-5-5-5-5-5-5-5-8-8-8-|------------

-|-5--5-5-5-5-5-5-5-5-5-5-5-8-8-8-5--5-5-5-5-5-5-5-5-5-5-5-8-8-8-|------------

-|-3--3-3-3-3-3-3-3-3-3-3-3-6-6-6-3--3-3-3-3-3-3-3-3-3-3-3-6-6-6-|------------

 

 

-|-----------------------------------------------------------|----------------

-|-----------------------------------------------------------|----------------

-|-----------------------------------------------------------|----------------

-|-5--5-5-8--8-8--8-8-8-8-5-5-5-8--8-8-8-8-8-8-8-8-8-8-8-8-8-|----------------

-|-5--5-5-8--8-8--8-8-8-8-5-5-5-8--8-8-8-8-8-8-8-8-8-8-8-8-8-|----------------

-|-3--3-3-6--6-6--6-6-6-6-3-3-3-6--6-6-6-6-6-6-6-6-6-6-6-6-6-|----------------

 

 

-|---------------------------------------------------------|------------------

-|-3--3-3-1--1-1-2--2-2-3--3-3-----------------------------|------------------

-|-2--2-2-2--2-2-x--x-x-x--x-x---------------5--5-5--------|------------------

-|-0--0-0-3--3-3-3--3-3-4--4-4-5--5-5-7--7-7-5--5-5-8--8-8-|------------------

-|---------------4--4-4-5--5-5-5--5-5-7--7-7-7--7-7-8--8-8-|------------------

-|-----------------------------3--3-3-5--5-5--------6--6-6-|------------------

Chorus

 

-|--------------------------------------------------------------------------|-

-|-3--3-3-1--1-1-2--2-2-3--3-3----------------------------------------------|-

-|-2--2-2-2--2-2-x--x-x-x--x-x---------------5--5-5-------------------------|-

-|-0--0-0-3--3-3-3--3-3-4--4-4-5--5-5-7--7-7-5--5-5-8--8--8-8-8-8--8-8-8-8-8|-

-|---------------4--4-4-5--5-5-5--5-5-7--7-7-7--7-7-8--8--8-8-8-8--8-8-8-8-8|-

-|-----------------------------3--3-3-5--5-5--------6--6--6-6-6-6--6-6-6-6-6|-

 

 

-|---------------3-------------3-|--3---3---3---3--|--------------------------

-|-3----2----3---3--3---2---3--3-|--3---3---3---3--|--------------------------

-|-2----x----x---0--2---x---x--0-|--0---0---0---0--|--------------------------

-|-0----3----4---0--0---3---4--0-|--0---0---0---0--|--------------------------

-|------4----5---x------4---5--x-|--2---2---2---2--|--------------------------

-|---------------3-------------3-|--3---3---3---3--|--------------------------

Bridge, G1-play simile 2x Strum for awhile

 

-|-----------------------------------------|----------------------------------

-|-----------------------------------------|----------------------------------

-|-----------------------------------------|----------------------------------

-|-8--8--5-------8-8--5--5-5-8--5-5-8----/-|----------------------------------

-|-8--8--5-------8-8--5--5-5-8--5-5-8----/-|----------------------------------

-|-6--6--3-------6-6--3--3-3-6--3-3-6----/-|----------------------------------

Then...

 

-|----5-----|-5-----2-3----5-----2-3---|--------------------------------------

-|------3---|---3------------3---------|--------------------------------------

-|-0------0-|-----0-----0------0-----0-|--------------------------------------

-|----------|--------------------------|--------------------------------------

-|----------|--------------------------|--------------------------------------

-|----------|--------------------------|--------------------------------------

Bridge, G2 Repeat simile till Chorus

 

-|---------------------------------------------------------|------------------

-|-3--3-3-1--1-1-2--2-2-3--3-3-----------------------------|------------------

-|-2--2-2-2--2-2-x--x-x-x--x-x---------------5--5-5--------|------------------

-|-0--0-0-3--3-3-3--3-3-4--4-4-5--5-5-7--7-7-5--5-5-8--8-8-|------------------

-|---------------4--4-4-5--5-5-5--5-5-7--7-7-7--7-7-8--8-8-|------------------

-|-----------------------------3--3-3-5--5-5--------6--6-6-|------------------

Chorus 2x

 

-|---------------3-|---------------3---3---3---3--|---------------------------

-|-3----2----3---3-|-3----2----3---3---3---3---3--|---------------------------

-|-2----x----x---0-|-2----x----x---0---0---0---0--|---------------------------

-|-0----3----4---0-|-0----3----4---0---0---0---0--|---------------------------

-|------4----5---x-|------4----5---2---2---2---2--|---------------------------

-|---------------3-|---------------3---3---3---3--|---------------------------

(G2 enter 2nd x)3x Strum for 10 bars

 

-|--3--3---3----3--3---3-3---3--3-3--3-3--3--|-5-----2-3---5-----2-3---|------

-|-----------------------------------3-3-----|---3-----------3---------|------

-|-------------------------------------------|-----0-----0-----0-----0-|------

-|-------------------------------------------|-------------------------|------

-|-------------------------------------------|-------------------------|------

-|-------------------------------------------|-------------------------|------

p.m. p.m.---| p.m.-| p.m.--------| G2-play till end

 

 

 

Return to my to my Pearl Jam tabs page

The Tablature is Copyright its respective owners.

Sign Up For My Newsletter
Subscribe | Unsubscribe

Site Map | Disclaimer | Privacy Policy | Media Kit | Submissions/Corrections

Website © 2000-2014 mattsmusicpage.com. All rights reserved.

Legal & DMCA: Matt's Music Page has been providing lyrics and tabs in a legal way, paying royalties each year to a few organizations. Then, all lyrics and tabs were removed from the site. Now, there's a new owner to the site, which purchased it August 26, 2014, and he is in negotiation to obtain licensing from BMI at the moment. If you have a specific DMCA request -- please do not hesitate to contact me via the contact button on top. I will do my very best to keep this site fully legal.

Get our toolbar!