Your One-Stop Source For
Music Lyrics
Bass and Guitar Tabs
and More...
Music Lyrics Bass and Guitar Tabs

 

The Tabs Are Below

Learn To Read Tab
Chords Handbook
Corrections & Additions
Get Official Tab
Pearl Jam tabs @ 911Tabs

 

Author/Artist: Pearl Jam

Title: Go

Album: Vs.

Transcribed by: Evan Cowan

Email: icowan@marin.k12.ca.us

Updated 03/21/99

 

G1 (Stone) is open-D tuning--DADF#AD (low to high)

G2 (Mike) is dropped-d

 

-|---|---|-------------------------------------------------------|------------

-|---|---|-------------------------------------------------------|------------

-|---|---|-------------------------------------------------------|------------

-|---|---|-------------------------------------------------------|------------

-|---|---|-------------------------------------------------------|------------

-|---|---|-0-0-0-0-2-3--0-3/--0-0-0-2-3--0-3/--0-0-0-0-2-3--0-3/-|------------

Intro, G1 with Fill 1

 

-|----------------------------------|-----------------------------------------

-|-5-5-5-5-7-7-7-8-8-8-10-8h10p8\5--|-----------------------------------------

-|----------------------------------|-----------------------------------------

-|----------------------------------|-----------------------------------------

-|----------------------------------|-----------------------------------------

-|----------------------------------|-----------------------------------------

Fill 1 (G2)

 

-|--------------------|---------------|---------------------------------------

-|--------------------|---------------|---------------------------------------

-|--------------------|---------------|---------------------------------------

-|--------------------|---------------|---------------------------------------

-|--------------------|---------------|---------------------------------------

-|-0-0-0-0-2-3--0-3/--|-0--0-0-2--3---|---------------------------------------

G1 4x

 

-|-------------------------|-------------------------|------------------------

-|-5--5--5--4--5--5--5--4--|-------------------------|------------------------

-|-------------------------|-7--7--7--6--7--7--7--6--|------------------------

-|-------------------------|-------------------------|------------------------

-|-5--5--5--4--5--5--5--4--|-5--5--5--4--5--5--5--4--|------------------------

-|-------------------------|-------------------------|------------------------

G1 G2

 

-|--------------------|----------------------------------|--------------------

-|--------------------|--5--5--5\4--4---5--5--5--4--2p0--|--------------------

-|--------------------|----------------------------------|--------------------

-|--------------------|----------------------------------|--------------------

-|--------------------|--5--5--5\4--4---5--5--5--4--2p0--|--------------------

-|-0-0-0-0-2-3--0-3/--|----------------------------------|--------------------

Both Guitars 12x G1 2x

 

-|---------------------------------------------------------------------|------

-|---------------------------------------------------------------------|------

-|--7--7--7\6--6---7--7--7--6--4--2---7--7--7\6--6---7--7--7--6--4--2--|------

-|---------------------------------------------------------------------|------

-|--5--5--5\4--4---5--5--5--4--2--0---5--5--5\4--4---5--5--5--4--2--0--|------

-|---------------------------------------------------------------------|------

G2

 

-|-------------------|--------------------|---------------------------------|-

-|-------------------|--------------------|--5--5--5\4--4---5--5--5--4--2p0-|-

-|-------------------|--------------------|---------------------------------|-

-|-------------------|--------------------|---------------------------------|-

-|-------------------|-------------2p0----|--5--5--5\4--4---5--5--5--4--2p0-|-

-|-0-0-0-0-2-3--0-3/-|-0-0-0-0-2-3-----3/-|---------------------------------|-

G1 8x G2 8x G1 4x

 

-|---------------------------------------------------------------------|------

-|---------------------------------------------------------------------|------

-|--7--7--7\6--6---7--7--7--6--4--2---7--7--7\6--6---7--7--7--6--4--2--|------

-|---------------------------------------------------------------------|------

-|--5--5--5\4--4---5--5--5--4--2--0---5--5--5\4--4---5--5--5--4--2--0--|------

-|---------------------------------------------------------------------|------

G2 4x

 

-|-12-----12-----12----------12-----12-----12-----12----------12-----12-----|-

-|----12-----12-----12-12h15----15-----15-----15-----15-12h15----12-----12--|-

-|--------------------------------------------------------------------------|-

-|--------------------------------------------------------------------------|-

-|--------------------------------------------------------------------------|-

-|--------------------------------------------------------------------------|-

Chorus, G1

 

-|-12-----12----------12-----12-----12-----12----------12----12----12------|--

-|----12-----12-12h15----15-----15-----15-----15-12h15----12----12----12---|--

-|-------------------------------------------------------------------------|--

-|-------------------------------------------------------------------------|--

-|-------------------------------------------------------------------------|--

-|-------------------------------------------------------------------------|--

 

 

-|-11-----10------|-----------------------------------------------------------

-|----11-----10\--|-----------------------------------------------------------

-|----------------|-----------------------------------------------------------

-|----------------|-----------------------------------------------------------

-|----------------|-----------------------------------------------------------

-|----------------|-----------------------------------------------------------

 

 

-|---------------------------------------|------------------------------------

-|---------------------------------------|------------------------------------

-|---------------------------------------|------------------------------------

-|--------------------8--8--8---8--8--8--|------------------------------------

-|--------------------8--8--8---8--8--8--|------------------------------------

-|-0-0-0-0-2-3--0-3/--8--8--8---8--8--8--|------------------------------------

Chourus, G2 5x

 

-|--------------------|-------------------------------------------------------

-|--------------------|-------------------------------------------------------

-|--------------------|-------------------------------------------------------

-|--------------------|-------------------------------------------------------

-|--------------------|-------------------------------------------------------

-|-0-0-0-0-2-3--0-3/--|-------------------------------------------------------

Solo rhythm 8x

 

-|-15b17---15b17-15b17-15b17-15b17-15b17-15b17r15-13----13---------------|----

-|---------------------------------------------------15----15-13h15p13---|----

-|-----------------------------------------------------------------------|----

-|-----------------------------------------------------------------------|----

-|-----------------------------------------------------------------------|----

-|-----------------------------------------------------------------------|----

Solo, Mike (w/wah)

 

-|-------10---------------------------------------------------------------|---

-|-10-13----13-10-13------------------------------------------------------|---

-|-------------------12b13r12-10----10-12p10----12p10----10-12-b13r12-10--|---

-|-------------------------------12----------12-------12------------------|---

-|------------------------------------------------------------------------|---

-|------------------------------------------------------------------------|---

 

 

-|-----------------------------------------------10----------10-----------|---

-|-----------------------------------10-13-10-------13-10-------13-10-----|---

-|----10-12-b13r12-10----10-12-12b13----------12----------12----------12--|---

-|-12-----------------12--------------------------------------------------|---

-|------------------------------------------------------------------------|---

-|------------------------------------------------------------------------|---

 

 

-|-10-13----------------------------------------------------------------|-----

-|------10------------10h13p10------------------------------------------|-----

-|--------12-10--10-12--------12-12-12-10-12-10----10-10b11-10----------|-----

-|-------------12-------------------------------12-------------12-10-12-|-----

-|----------------------------------------------------------------------|-----

-|----------------------------------------------------------------------|-----

 

 

-|------------------------------------------------------------------------|---

-|------------------------------------------------------------------------|---

-|-----------------------------------------------------12-10h12p10----10\-|---

-|-10--10h12-10-10-------------------------------10-12-------------12-----|---

-|---12------------12-10-8-10b11r10-8-10p8-10/12--------------------------|---

-|------------------------------------------------------------------------|---

 

 

-|----------------------------------|-----------------------------------|-----

-|--5--5--5\4--4---5--5--5--4--2p0--|-----------------------------------|-----

-|----------------------------------|--7--7--7\6--6---7--7--7--6--4--2--|-----

-|----------------------------------|-----------------------------------|-----

-|--5--5--5\4--4---5--5--5--4--2p0--|--5--5--5\4--4---5--5--5--4--2--0--|-----

-|----------------------------------|-----------------------------------|-----

G1 4x G2 4x

 

-|-12-----12-----12----------12-----12-----12-----12----------12-----12-----|-

-|----12-----12-----12-12h15----15-----15-----15-----15-12h15----12-----12--|-

-|--------------------------------------------------------------------------|-

-|--------------------------------------------------------------------------|-

-|--------------------------------------------------------------------------|-

-|--------------------------------------------------------------------------|-

Chorus, G1

 

-|-12-----12----------12-----12-----12-----12----------12-----12-----12-----|-

-|----12-----12-12h15----15-----15-----15-----15-12h15----12-----12-----12--|-

-|--------------------------------------------------------------------------|-

-|--------------------------------------------------------------------------|-

-|--------------------------------------------------------------------------|-

-|--------------------------------------------------------------------------|-

 

 

-|-12----------12-----12-----12-----12----------12-----12-----12-----12-----|-

-|----12-12h15----15-----15-----15-----15-12h15----12-----12-----12-----12--|-

-|--------------------------------------------------------------------------|-

-|--------------------------------------------------------------------------|-

-|--------------------------------------------------------------------------|-

-|--------------------------------------------------------------------------|-

 

 

-|-------12-----12-----12----12----------|------------------------------------

-|-12h15----15-----15-----15----15-------|------------------------------------

-|---------------------------------------|------------------------------------

-|---------------------------------------|------------------------------------

-|---------------------------------------|------------------------------------

-|----------------------------------15\--|------------------------------------

 

 

-|---------------------------------------|------------------------------------

-|---------------------------------------|------------------------------------

-|---------------------------------------|------------------------------------

-|-8--8--8---8--8--8---------------------|------------------------------------

-|-8--8--8---8--8--8---------------------|------------------------------------

-|-8--8--8---8--8--8--0-0-0-0-2-3--0-3/--|------------------------------------

Chorus, G2 8x

 

-|--------------------|-----------------------------------------------------|-

-|--------------------|-----------------------------------------------------|-

-|--------------------|-----------------------------------------------------|-

-|--------------------|-----------------------------------------------------|-

-|--------------------|-----------------------------------------------------|-

-|-0-0-0-0-2-3--0-3/--|-12-12-12-12-12-12-12-12-12-12-12-12-12-12-12-12-12\-|-

Outro solo rhythm 15x

 

-|-10----10----10----10----10----10----|-12----12----12----12----12----12---|-

-|-13b15-13b15-13b15-13b15-13b15-13b15-|-15b17-15b17-15b17-15b17-15b17-15b17|-

-|-------------------------------------|------------------------------------|-

-|-------------------------------------|------------------------------------|-

-|-------------------------------------|------------------------------------|-

-|-------------------------------------|------------------------------------|-

Outro Solo (w/ major wah) 2x 2x

 

-|-13----13----13----13----13----13----|-15----15----15----15----15----15---|-

-|-16b18-16b18-16b18-16b18-16b18-16b18-|-18b20-18b20-18b20-18b20-18b20-18b20|-

-|-------------------------------------|------------------------------------|-

-|-------------------------------------|------------------------------------|-

-|-------------------------------------|------------------------------------|-

-|-------------------------------------|------------------------------------|-

2x 2x

 

-|-17----17----17----17----17----17----|--17-------17\---|--------------------

-|-20b22-20b22-20b22-20b22-20b22-20b22-|--20b22----------|--------------------

-|-------------------------------------|-----------------|--------------------

-|-------------------------------------|-----------------|--------------------

-|-------------------------------------|-----------------|--------------------

-|-------------------------------------|-----------------|--------------------

7x

 

 

 

Return to my to my Pearl Jam tabs page

The Tablature is Copyright its respective owners.

Sign Up For My Newsletter
Subscribe | Unsubscribe

Site Map | Disclaimer | Privacy Policy | Media Kit | Submissions/Corrections

Website © 2000-2014 mattsmusicpage.com. All rights reserved.

Legal & DMCA: Matt's Music Page has been providing lyrics and tabs in a legal way, paying royalties each year to a few organizations. Then, all lyrics and tabs were removed from the site. Now, there's a new owner to the site, which purchased it August 26, 2014, and he is in negotiation to obtain licensing from BMI at the moment. If you have a specific DMCA request -- please do not hesitate to contact me via the contact button on top. I will do my very best to keep this site fully legal.

Get our toolbar!