Your One-Stop Source For
Music Lyrics
Bass and Guitar Tabs
and More...
Music Lyrics Bass and Guitar Tabs

 

The Tabs Are Below

Learn To Read Tab
Chords Handbook
Corrections & Additions
Get Official Tab
Pearl Jam tabs @ 911Tabs

Author/Artist: pearl jam

Title: given to fly live

Transcribed by: Saverain

Email: saverain@hotmail.com

 

v stum down

^ strum up

This the live version so I'm not to shure if it is different or not

from the original. I tryed my best I hope this works for you

Pearl Jam forever

 

 

 

 

 

 

 

-|----------------------------------------------------------------------------

-|----------12--8----8-----------------------------12--8----8-----------------

-|----------0--------0---------------7-7-----------0--------0-----------------

-|----------------------------------------------------------------------------

-|-9h10--10-------10---9h10p9-9-7--5------9h10--10-------10---9h10p9-9--5--5--

-|----------------------------------------------------------------------------

intro v ^ ^ v ^ v v ^ v ^ v v v

 

------5------------7p5------------|-------------------------------------------

---------5-5--7--7-----5-5--7/12--|----------12--8----8-----------------------

--7-7-----------------------------|----------0--------0---------------7-7-----

----------------------------------|-------------------------------------------

----------------------------------|-9h10--10-------10---9h10p9-9-7--5---------

----------------------------------|-------------------------------------------

^ v ^ v v v v v ^ v v verse

 

----------------------------------------5------------5----------|-------------

----------12--8----8-----------------------5-5--7--7----5-5--7--|-------------

----------0---0----0----------------7-7-------------------------|-------------

----------------------------------------------------------------|-------------

-9h10--10-------10---9h10p9-9--5--5-----------------------------|-------------

----------------------------------------------------------------|-------------

^ v v v v ^ v v v

 

-|-----------------------------------------5-----------------5-5--5--5-5-|-5-

-|----------12--8----8------------------------5-5--7--5-5-5--5-5--5--7-7-|-5-

-|----------0--------0-----------------7-7---------7--7-7-7--7-7--7--7-7-|-7-

-|---------------------------------------------------------------------7-|-7-

-|-9h10--10-------10---9h10p9-9--5--5------------------------------------|-5-

-|-----------------------------------------------------------------------|---

pre chorus v ^ v ^ v ^ ^ v

 

-5-5--5-5--5--5--5-5-5-5--5-5--5--5--5-|-3-3-3-3-3-3-3-3-3--3-3--3-3-3--3-3-3-

-5-5--5-5--5--7--7-5-5-5--5-5--5--7--7-|-3-3-3-3-3-3-3-3-3--3-3--3-3-3--3-3-3-

-7-7--7-7--7--7--7-7-7-7--7-7--7--7--7-|-0-0-0-0-0-0-0-0-0--0-0--0-0-0--0-0-0-

-7-7--7-7--7--7--7-7-7-7--7-7--7--7--7-|-0-0-0-0-0-0-0-0-0--0-0--0-0-0--0-0-0-

-5-5--5-5--5--5--5-5-5-5--5-5--5--5--5-|-2-2-2-2-2-2-2-2-2--2-2--2-2-2--2-2-2-

-5-5--5-5--5-------5-5-5--5-5--5--5--5-|-3-3-3-3-3-3-3-3-3--3-3--3-3-3--3-3-3-

continue rythm to chorus v ^ v ^ v ^ v ^ v v ^ ^ v ^ ^ v ^

 

-3-3-3--3-3-3--3-3--3-3--------------------------------|----------------------

-3-3-3--3-3-3--3-3--3-3-----7-7--7-x-x----7-7--7---7---|----------------------

-0-0-0--0-0-0--0-0--0-0--7--7-7--7-x-x-7--7-7--7-7-7-7-|----------------------

-0-0-0--0-0-0--0-0--0-0--7--7-7--7-x-x-7--7-7--7-7-7-7-|-10-10--10-10--10-10\-

-2-2-2--2-2-2--2-2--2-2--5--5-5--5-x-x-5--5-5--5-5-5-5-|-10-10--10-10--10-10\-

-3-3-3--3-3-3--3-3--3-3--5--5-5--5-x-x-5--5-5--5-5-5-5-|-8--8---8--8---8--8-\-

^ v ^ ^ v ^ ^ ^ ^ ^ v v v v v ^ v v v v v ^ v v ^ v v v ^

 

--------------------------------------------------------------|-----------

-----------------------------------7-7--7-x-x----7-7--7---7---|-5--5-5--5-

--------------------------------7--7-7--7-x-x-7--7-7--7-7-7-7-|-7--7-7--7-

-\5--10-10--10-10--10-10-999----7--7-7--7-x-x-7--7-7--7-7-7-7-|-7--7-7--7-

-\5--10-10--10-10--10-10-999775-5--5-5--5-x-x-5--5-5--5-5-5-5-|-5--5-5--5-

-\3--8--8---8--8---8--8--777553-5--5-5--5-x-x-5--5-5--5-5-5-5-|-5--5-5--5-

v ^ v v ^ v v^vv^v second time end > v ^ v v

 

---------|------|------|-7------------7---8-7---|------7------------7---8-7---

--7---3--|------|------|---8-6-8--8p6---8-------|--------8-6-8--8p6---8-------

--7\--5--|------|------|------------------------|-----------------------------

--7\--5--|------|------|------------------------|-----------------------------

--5\--3--|------|------|------------------------|-----------------------------

--5\--3--|------|------|------------------------|-----------------------------

v v verse chorus second interlude end outro^ v v v v v ^ ^ v

 

-7------------7---8-7--7----------------------------------------------------|-

---8-6-8--8p6---8--------8-6--6/8--3--3\0-----------------------------------|-

------------------------------------------4--4/0-0--4/0-0--4/0-0------------|-

----------------------------------------------------------------------------|-

----------------------------------------------------------------------------|-

----------------------------------------------------------------------------|-

 

 

 

 

 

Return to my to my Pearl Jam tabs page

The Tablature is Copyright its respective owners.

Sign Up For My Newsletter
Subscribe | Unsubscribe

Site Map | Disclaimer | Privacy Policy | Media Kit | Submissions/Corrections

Website © 2000-2014 mattsmusicpage.com. All rights reserved.

Legal & DMCA: Matt's Music Page has been providing lyrics and tabs in a legal way, paying royalties each year to a few organizations. Then, all lyrics and tabs were removed from the site. Now, there's a new owner to the site, which purchased it August 26, 2014, and he is in negotiation to obtain licensing from BMI at the moment. If you have a specific DMCA request -- please do not hesitate to contact me via the contact button on top. I will do my very best to keep this site fully legal.

Get our toolbar!

 

Hard Rock Pin Las Vegas 4th of july red white and blue guitar
$5.0
Hard Rock Pin Las Vegas 4th of july red white and blue guitar picture


Hard Rock Pin Hollywood Fl Bell Girl with dice luggage and guitar
$5.0
Hard Rock Pin Hollywood Fl Bell Girl with dice luggage and guitar picture


Hard Rock Pin Las Vegas King of Clubs Guitar rare only 3 lines of info on back
$5.0
Hard Rock Pin Las Vegas King of Clubs Guitar rare only 3 lines of info on back picture


Hard Rock Pin Edmonton guitar pin
$5.0
Hard Rock Pin Edmonton guitar pin picture


Lladro Guitar Boy #4614 - Beautiful Piece of Lladro
$109.0
Lladro Guitar Boy #4614 - Beautiful Piece of Lladro picture