Your One-Stop Source For
Music Lyrics
Bass and Guitar Tabs
and More...
Music Lyrics Bass and Guitar Tabs

 

The Tabs Are Below

Learn To Read Tab
Chords Handbook
Corrections & Additions
Get Official Tab
Pearl Jam tabs @ 911Tabs

 

Author/Artist: Mike McCready

Title: Given To Fly

Album: Yield

Transcribed by: Chris Wilson, Dave Coleman (intro) and an additon by Evan Cowan.

Email: yokel@zip.com.au, djcole@one.net.au

 

Mike's guitar tuning is high to low d-a-g-d-a-d, stone's is standard.

Let G2 ring into the D chord coming into post-verse in the second verse.

G3 is in the alternate tuning 'cause it plays the outro lick during the last cho

 

rus.

G1 is mike and G2 is stone.

 

----------------9------------------------------------------9------------------

------------------10-----------9--7---5--5-------------------10------------9--

-----------0---------0-------0------------------------0---------0--------0----

------------------------------------------------------------------------------

-0-9/10-10---10--------0-7/9------7---5--5----9/10-10---10---------0-7/9------

------------------------------------------------------------------------------

Intro\Verse G1

 

---------0-|--7-------7--------|--7-------7-------7-------7-------|-----------

--5--------|----7-7-9---7-7-9--|----7-7-9---7-7-9---7-7-9---7-7-9-|-----------

-----0-----|-------------------|----------------------------------|--2--2-2-2-

-------0---|-------------------|----------------------------------|--0--0-0-0-

--5--------|-------------------|----------------------------------|-----------

-----------|-------------------|----------------------------------|-----------

Post-Verse G1 G2

 

----------------------------------|-9---10--9----------9---10--9---|----------

-------------3--3-3-3----3--3-3-3-|-10--10--10---------10--10--10--|----------

--2--2-2-2---2--2-2-2----2--2-2-2-|-0---0---0----------0---0---0---|----------

--0--0-0-0---0--0-0-0----0--0-0-0-|-0---0---0----------0---0---0---|----------

----------------------------------|-10--10--10---------10--10--10--|----------

----------------------------------|--------------------------------|----------

Pre-Chorus G1 listen to Cd

 

-|------3-----|--7----------7------------|------------0h2-----------0h2-|-----

-|------3-----|----7-7-7h9--7-7-7-9-0----|-----3--3-3-3------3--3-3-3---|-----

-|------0-----|----x-x-x----x-x-x-x-x----|-----2--2-2-2------2--2-2-2---|-----

-|------0-----|----0-0-0----0-0-0-0-0----|-----0--0-0--------0--0-0-----|-----

-|------2-----|--------------------------|------------------------------|-----

-|------3-----|--------------------------|------------------------------|-----

G2 strum G Post-Verse G1 G2

 

-|-------------------------------------------------------|--10-10--10-10-10\--

-|-------------------------------------------------------|--10-10--10-10-10\--

-|-------------------------------------------------------|--10-10--10-10-10\--

-|-------------------------------------------------------|--10-10--10-10-10\--

-|-------------------------------------------------------|--10-10--10-10-10\--

-|-------------------------------------------------------|--10-10--10-10-10\--

Go through pre-chorus then post-verse once more Chorus G1

 

-x-x-x-x--10-10---10-10-10\--9\---7\--5-5-5-5---5-5-5-5--x-x-x-x-|------------

-x-x-x-x--10-10---10-10-10\--9\---7\--5-5-5-5---5-5-5-5--x-x-x-x-|------------

-x-x-x-x--10-10---10-10-10\--9\---7\--5-5-5-5---5-5-5-5--x-x-x-x-|------------

-x-x-x-x--10-10---10-10-10\--9\---7\--5-5-5-5---5-5-5-5--x-x-x-x-|------------

-x-x-x-x--10-10---10-10-10\--9\---7\--5-5-5-5---5-5-5-5--x-x-x-x-|------------

-x-x-x-x--10-10---10-10-10\--9\---7\--5-5-5-5---5-5-5-5--x-x-x-x-|------------

 

 

-|---------------------------------|--------------------------------------|---

-|---------------------------------|--------------------------------------|---

-|-----0-0-------------0-0---------|--------------------------------------|---

-|--0--0-0----------0--0-0---------|--------------------------------------|---

-|--2--------0-2----2--------0-2---|--------------------------------------|---

-|--3--------3-3----3--------3-3---|--------------------------------------|---

G2 as soon as G1 hits G play this Chorus once more then back to Verse

 

-|--------------------------------------------------------------------------|-

-|------------------3-3-3-3-3-3-3-3-3-3-3-3-3-3-3-3-3-3-3-3-3-3-3-3-3-3-3-3-|-

-|--------------------------------------------------------------------------|-

-|--------------------------------------------------------------------------|-

-|--------------------------------------------------------------------------|-

-|--------------------------------------------------------------------------|-

G2 Second Verse pm-------------------------------------------------|

 

-|---------------------------------------|---------------------|--------------

-|---------------------------------------|---------------------|--------------

-|---------------------------------------|--0h2h4p0---0-2-4-0--|--12v-12v-12v-

-|---------------------------------------|---------------------|--------------

-|---------------------------------------|---------------------|--------------

-|---------------------------------------|---------------------|--------------

Post-Verse (half as long as first one) G3 fill #1 Fill #2

 

-------------------------------------|----------------------------------------

-------------------------------------|----------------------------------------

--12v-12v-12v-12v-12/17--16-14-16vvv-|-12--12--12--12--12--12--12--12/21--19--

-------------------------------------|----------------------------------------

-------------------------------------|----------------------------------------

-------------------------------------|----------------------------------------

Fill #3

 

---------|--9------------------9-----10-9------|--9-------------------|-------

---------|----10-8-10----10p8----10-------10-8-|----10-8-10\5-5--5\0--|-------

-17-19vv-|-------------------------------------|----------------------|-------

---------|-------------------------------------|----------------------|-------

---------|-------------------------------------|----------------------|-------

---------|-------------------------------------|----------------------|-------

Outro G1

 

-|----------------------------------------------|--------------------------|--

-|----------------------------------------------|--------------------------|--

-|-----0-0-------------0-0-------------0-0------|-----2---------2-----2----|--

-|--0--0-0----------0--0-0----------0--0-0------|--0--0--0-0----0--0--0--0-|--

-|--2-------0-2-----2-------0-2-----2-------0-2-|--2-----2---2-----2-----2-|--

-|--3-------3-3-----3-------3-3-----3-------3-3-|--3-----3---------3-----3-|--

G2 (while G1 is playing the outro lick) X2 (when G1 finishes)

 

 

 

 

Return to my to my Pearl Jam tabs page

The Tablature is Copyright its respective owners.

Sign Up For My Newsletter
Subscribe | Unsubscribe

Site Map | Disclaimer | Privacy Policy | Media Kit | Submissions/Corrections

Website © 2000-2014 mattsmusicpage.com. All rights reserved.

Legal & DMCA: Matt's Music Page has been providing lyrics and tabs in a legal way, paying royalties each year to a few organizations. Then, all lyrics and tabs were removed from the site. Now, there's a new owner to the site, which purchased it August 26, 2014, and he is in negotiation to obtain licensing from BMI at the moment. If you have a specific DMCA request -- please do not hesitate to contact me via the contact button on top. I will do my very best to keep this site fully legal.

Get our toolbar!

 

1939 LYRIC THEATRE New York PHOTO
$5.83
1939 LYRIC THEATRE New York PHOTO picture


Star Spangled Banner or Marines Hymn lyrics signed by WWII Charles W. Lindberg
$10.0
Star Spangled Banner or Marines Hymn lyrics signed by WWII Charles W. Lindberg picture


OLD LARGE HISTORIC PHOTO OF THE LYRIC THEATRE, SYDNEY c1930s, WAR BONDS BOOTH
$7.42
OLD LARGE HISTORIC PHOTO OF THE LYRIC THEATRE, SYDNEY c1930s, WAR BONDS BOOTH picture


SONG OF REVOLUTION CARD SET WITH 13 MOST FAVORED COMMUNIST SONGS LYRICS + NOTES
$24.99
SONG OF REVOLUTION CARD SET WITH 13 MOST FAVORED COMMUNIST SONGS LYRICS + NOTES picture


OLD LARGE HISTORIC PHOTO OF THE LYRIC THEATRE, SYDNEY c1930s, WAR LOANS BOOTH
$7.42
OLD LARGE HISTORIC PHOTO OF THE LYRIC THEATRE, SYDNEY c1930s, WAR LOANS BOOTH picture