Your One-Stop Source For
Music Lyrics
Bass and Guitar Tabs
and More...
Music Lyrics Bass and Guitar Tabs

 

The Tabs Are Below

Learn To Read Tab
Chords Handbook
Corrections & Additions
Get Official Tab
Pearl Jam tabs @ 911Tabs

 

Author/Artist: Pearl Jam

Title: Even Flow

Album: Ten

Transcribed by: Evan Cowan

Email: icowan@marin.k12.ca.us

06/22/1999

 

My absolute favorite song

The tab is loose, just jam around on all of the riffs

This is more like what they play live, except mike's fills during the 2nd verse

 

and his solo

Mike--Standard tuning

Stone--open-D--DADF#AD (low-->high)

Mike--standard tuning

 

-|-----|-------------------------------|-------------------|----------------|-

-|-----|-------------------------------|-------------------|----------------|-

-|-----|-------------------------------|-------------------|----------------|-

-|-----|-------------------------------|-------------------|----------------|-

-|-----|-------3p0-0-5-----------------|-5-3---------------|--------3-5-----|-

-|-15\-|-/7--7-------0----0-0--6-5-3-0-|-----6-5-3-0-3-5-0-|-x-/7-x-----0-7\|-

Stone, intro 3x

 

-|-----|-------------------------------|-------------------|--------|---------

-|-----|-------5-----7----7-7----------|-------------------|-7------|---------

-|-----|--7--x-5-----7----7-7----------|-7-5---------------|-7------|---------

-|-----|--7--x-----------------6-5-3-0-|-----6-5-3-0-3-5-0-|-7------|---------

-|-----|-------------------------------|-------------------|-5------|---------

-|-15\-|-------------------------------|-------------------|--------|---------

Mike, intro 3x

 

-|---------------------|------------------------------|-----------------|-----

-|---------------------|------------------------------|-----------------|-----

-|---------------------|------------------------------|-----------------|-----

-|---------------------|------------------------------|-----------------|-----

-|-------3p0-0-5-------|-------3p0-0-5--5-5-5-5-5-5-5-|-5-3-------------|-----

-|-/7--7-------0-0-15\-|-/7--7-------0----------------|-----6-5-3-0-3-5-|-----

Stone, verse (jam) 14x

 

-|-------------------------|-----------------------|-----------------|--------

-|-------5--x-7--x-x-x-x-x-|------5--x-7--7-7--7-7-|-----------------|--------

-|-------5--x-7--x-x-x-x-x-|------5--x-7--7-7--7-7-|-7-5-------------|--------

-|-/7--7-------------------|-/7-7------------------|-----6-5-3-0-3-5-|--------

-|-------------------------|-----------------------|-----------------|--------

-|-------------------------|-----------------------|-----------------|--------

Mike, verse (jam) 14x

 

-|-----------------------------|-----------------------|----------------------

-|-----------------------------|-----------------------|----------------------

-|-----------------------------|-----------------------|----------------------

-|-----------------------------|--------------------12-|----------------------

-|-------3p0-0-5---------------|-5-3----------------12-|----------------------

-|-/7--7-------0--0-0--6-5-3-0-|-----6-5-3-0-3-5-0--12-|----------------------

Pre-Chorus, Stone 3x

 

-|-----------------------------|-----------------------|----------------------

-|-------5---x-7--7-7----------|-----------------------|----------------------

-|-------5---x-7--7-7----------|-7-5-------------------|----------------------

-|-/7--7---------------6-5-3-0-|-----6-5-3-0-3-5-0--7--|----------------------

-|-----------------------------|--------------------5--|----------------------

-|-----------------------------|-----------------------|----------------------

Pre-Chorus, Mike 3x

 

-|-12--12--8---12--12--10-|-12-12--10---12-12-10--------|---------------------

-|-12--12--8---12--12--10-|-12-12--10---12-12-10--------|---------------------

-|-12--12--8---12--12--10-|-12-12--10---12-12-10--------|---------------------

-|-12--12--8---12--12--10-|-12-12--10---12-12-10--------|---------------------

-|-12--12--8---12--12--10-|-12-12--10---12-12-10--------|---------------------

-|-12--12--8---12--12--10-|-12-12--10---12-12-10--0-15\-|---------------------

Chorus, Stone 3x

 

-|---------------------------------|----------------------------------------|-

-|---------------------------------|----------------------------------------|-

-|-11-----------------11-----------|-11--------------9b10r9-7vvvv-11--------|-

-|-----12--10-8--8vvv----12-10vvvv-|-----12--10--8-8-----------------12-10vv|-

-|---------------------------------|----------------------------------------|-

-|---------------------------------|----------------------------------------|-

Chorus, Mike 2x

 

-|--------------------|-------------------------------------------------------

-|--------------------|-------------------------------------------------------

-|-11--------11-------|-------------------------------------------------------

-|----12-10-----12-10-|-------------------------------------------------------

-|--------------------|-------------------------------------------------------

-|--------------------|-------------------------------------------------------

 

 

-|----------------------|------------------------------------------------|----

-|----------------------|------------------------------------------------|----

-|----------------------|------------------------------------------------|----

-|----------------------|---------------------------------------------12-|----

-|-------3p0-0-5--------|-------3p0-0-5--5-5--5-5--5-3----------------12-|----

-|-/7--7-------0--0-15\-|-/7--7-------0--0-0--0-0------6-5-3-0-3-5-0--12-|----

2nd Verse, Stone 14x

 

-|----------------------|--------------------------------------------------|--

-|-------5---x-7--------|----------------------x-x-x-------------13b15r13\-|--

-|-------5---x-7--------|-12b14-10vvv-12p10----x-x---12b14-10vvv-----------|--

-|-/7--7----------------|-------------------12-----------------------------|--

-|----------------------|--------------------------------------------------|--

-|----------------------|--------------------------------------------------|--

2nd verse, Mike 2x

 

-|----------------------|-15b17--15b16-16--r15-15p13----13b15-----|-----------

-|-------5---x-7--------|----------------------------15-----------|-----------

-|-------5---x-7--------|-------------------------------------12\-|-----------

-|-/7--7----------------|-------------------------------------12\-|-----------

-|----------------------|-----------------------------------------|-----------

-|----------------------|-----------------------------------------|-----------

2x hold-----|

 

-|----------------------|----------10-10-------------------------|------------

-|-------5---x-7--------|-------10-10-10-13b15--x-13b15r13b15-13-|------------

-|-------5---x-7--------|-12b14----------------------------------|------------

-|-/7--7----------------|----------------------------------------|------------

-|----------------------|----------------------------------------|------------

-|----------------------|----------------------------------------|------------

2x

 

-|-------------------------------------------|-----------------|--------------

-|-------------------------------------------|-------5---x-7---|--------------

-|-12b14r12-12b14r12p10-12-10-------10vv-12\-|-------5---x-7---|--------------

-|----------------------------12-12----------|-/7--7-----------|--------------

-|-------------------------------------------|-----------------|--------------

-|-------------------------------------------|-----------------|--------------

2x

 

-|------------------------------13b15--r13---------------|--------------------

-|-5-5-7-7-9-9-9-12-12-12-14-14------------x-13b15vvvvvv-|--------------------

-|-------------------------------------------------------|--------------------

-|-------------------------------------------------------|--------------------

-|-------------------------------------------------------|--------------------

-|-------------------------------------------------------|--------------------

 

 

-|-12-12-8---12-12-10--|---------------------------------|--------------------

-|-12-12-8---12-12-10--|---------------------------------|--------------------

-|-12-12-8---12-12-10--|---------------------------------|--------------------

-|-12-12-8---12-12-10--|---------------------------------|--------------------

-|-12-12-8---12-12-10--|---------------------------------|--------------------

-|-12-12-8---12-12-10--|-10-10-10--11-12-10-10-10--11-12-|--------------------

2nd Chorus, Stone 4x

 

-|-12-12-8---12-12-10-|-12-12-10--|-------------------------------------------

-|-12-12-8---12-12-10-|-12-12-10--|-------------------------------------------

-|-12-12-8---12-12-10-|-12-12-10--|-------------------------------------------

-|-12-12-8---12-12-10-|-12-12-10--|-------------------------------------------

-|-12-12-8---12-12-10-|-12-12-10--|-------------------------------------------

-|-12-12-8---12-12-10-|-12-12-10--|-------------------------------------------

3x

 

-|---------------------------|----------------------------------------|-------

-|---------------------------|----------------------------------------|-------

-|-11------------11----------|-11------------9b10r9-7vvv-11-----------|-------

-|----12-10-8vvv----12-10vvv-|----12-10-8--8----------------12-10vvv--|-------

-|---------------------------|----------------------------------------|-------

-|---------------------------|----------------------------------------|-------

2nd Chorus, Mike 3x

 

-|-----------------------------------|----------------------------|-----------

-|-----------------------------------|----------------------------|-----------

-|-----------------------------------|-11------------9b10r9-7vvvv-|-----------

-|-10-10-10--11-12-x-10-10-10--11-12-|----12-10-8--8--------------|-----------

-|-----------------------------------|----------------------------|-----------

-|-----------------------------------|----------------------------|-----------

 

 

-|--------------|------------------------------|------------------------------

-|--------------|------------------------------|------------------------------

-|-11-----------|-11--------11--------11-------|------------------------------

-|----12-10vvvv-|----12-10-----12-10-----12-10-|------------------------------

-|--------------|------------------------------|------------------------------

-|--------------|------------------------------|------------------------------

 

 

-|------------------------------|---------------------------------|-----------

-|------------------------------|---------------------------------|-----------

-|------------------------------|---------------------------------|-----------

-|--------------------------12\-|-10-10-10--11-12-12--12-12--12\--|-----------

-|--------------------------12\-|----------------------------12\--|-----------

-|-10-10-10--11-12-0--0-0-0-12\-|---------------------------------|-----------

Bridge, Stone 4x Bridge, Mike 4x

 

-|--------------------------|-------------------------------------------------

-|--------------------------|-------------------------------------------------

-|-x-x---x-x-x--x--x--x-12\-|-------------------------------------------------

-|-x-x---x-x-x--x--x--x-12\-|-------------------------------------------------

-|-x-x---x-x-x--x--x--x-12\-|-------------------------------------------------

-|--------------------------|-------------------------------------------------

Solo, Stone 16x

 

-|------------------------------------------------------------------|---------

-|-13b15--15--15-15--15--15-15--15--x-13b15-x-13b15-15b17---x-------|---------

-|------------------------------------------------------------------|---------

-|------------------------------------------------------------------|---------

-|--------------------------------------------------------------7-7-|---------

-|------------------------------------------------------------0-----|---------

Solo, MIKE!!! hold bend----------|

 

-|-------10--------------------------------------------|----------------------

-|-------10-10----13b15--13b15-13-10-------------------|----------------------

-|-12b14----12b14--------------------12-12b14r12p10----|----------------------

-|--------------------------------------------------12-|----------------------

-|-----------------------------------------------------|----------------------

-|-----------------------------------------------------|----------------------

 

 

-|----------10-----------------------------|----------------------------------

-|----------10-----------------------------|----------------------------------

-|-10-12-10----10-12-10-12b14----r12p10----|----------------------------------

-|--------------------------------------12-|----------------------------------

-|-----------------------------------------|----------------------------------

-|-----------------------------------------|----------------------------------

 

 

-|-------10-------------10----------------------------------------|-----------

-|----------13-10-13b15----13p10----------------------------------|-----------

-|-12b14-------------------------12-12b14r12p10-12-12-10----------|-----------

-|-------------------------------------------------------12-10----|-----------

-|-------------------------------------------------------------12-|-----------

-|----------------------------------------------------------------|-----------

 

 

-|-------------------------------------------|--------------------------------

-|-------------------------------------------|--------------------------------

-|-------------------------------------------|--------------------------------

-|-------------------------------------------|--------------------------------

-|-10b12-10-8-10-10b12-10-8----8-10-8b9vv----|--------------------------------

-|--------------------------10------------10-|--------------------------------

 

 

-|------------------------------------------|----------10-------------------|-

-|-10----10-------10--10-------10-----------|-------10----13p10-10-13b15vvv-|-

-|-10h12-10-------10--10-------10--------10-|-12b14-------------------------|-

-|----------10h12--------10h12-----10-12----|-------------------------------|-

-|------------------------------------------|-------------------------------|-

-|------------------------------------------|-------------------------------|-

 

 

-|---15b17vvvv-r15----15b17r15-13----------------------|----------------------

-|-x---------------15-------------------10-------10-10-|----------------------

-|--------------------------------12b14----12b14-------|----------------------

-|-----------------------------------------------------|----------------------

-|-----------------------------------------------------|----------------------

-|-----------------------------------------------------|----------------------

 

 

-|------------------------------------|--------------x-|-x-x------------x-x-|-

-|------------------------------------|--------------x-|-x-x------------x-x-|-

-|-12b14-10---------------------------|----------------|--------------------|-

-|-----------12-10--------------------|----------------|--------------------|-

-|-----------------12-11-10-8-10---10-|-10----b--12\---|--------------------|-

-|------------------------------------|----------------|--------------------|-

 

 

-|------------------|----------------|----------------------------------------

-|-12/14vvvvvvvv--\-|-14-15-14-------|----------------------------------------

-|-12/14vvvvvvvv--\-|-14-14-14-------|----------------------------------------

-|------------------|----------------|----------------------------------------

-|------------------|----------------|----------------------------------------

-|------------------|----------------|----------------------------------------

 

 

-|----------------------------|---------------------------|-------------------

-|----------------------------|---------------------------|-------------------

-|----------10----------------|------------------10-------|-------------------

-|----------10--x-12vvvv-\----|-------x-10-x-12-----12\---|-------------------

-|-10/12p10-------------------|-10/12---------------------|-------------------

-|----------------------------|---------------------------|-------------------

Interlude, Stone 4x

 

-|----------------------------|---------------------------|-------------------

-|-------------------10-10-10-|------------------10-10-10-|-------------------

-|-------------------10-10-10-|------------------10-10-10-|-------------------

-|-------------------10-10-10-|------------------10-10-10-|-------------------

-|----------------------------|---------------------------|-------------------

-|----------------------------|---------------------------|-------------------

Interlude, Mike 4x

 

-|-12-12-8---12-12-10--|----------------------------------|-------------------

-|-12-12-8---12-12-10--|----------------------------------|-------------------

-|-12-12-8---12-12-10--|----------------------------------|-------------------

-|-12-12-8---12-12-10--|----------------------------------|-------------------

-|-12-12-8---12-12-10--|----------------------------------|-------------------

-|-12-12-8---12-12-10--|-10-10-10--11-12--10-10-10--11-12-|-------------------

3rd Chorus, Stone 4x

 

-|-12-12-8---12-12-10--|-12-12-10-|-------------------------------------------

-|-12-12-8---12-12-10--|-12-12-10-|-------------------------------------------

-|-12-12-8---12-12-10--|-12-12-10-|-------------------------------------------

-|-12-12-8---12-12-10--|-12-12-10-|-------------------------------------------

-|-12-12-8---12-12-10--|-12-12-10-|-------------------------------------------

-|-12-12-8---12-12-10--|-12-12-10-|-------------------------------------------

3x

 

-|----------------------------|---------------------------------------|-------

-|----------------------------|---------------------------------------|-------

-|-11------------11-----------|-11------------9b10r9-7vvv-11----------|-------

-|----12-10-8vvv----12-10vvvv-|----12-10-8--8----------------12-10vvv-|-------

-|----------------------------|---------------------------------------|-------

-|----------------------------|---------------------------------------|-------

3rd Chorus, Mike 3x

 

-|-----------------------------------|----------------------------|-----------

-|-----------------------------------|----------------------------|-----------

-|-----------------------------------|-11------------9b10r9-7vvvv-|-----------

-|-10-10-10--11-12-x-10-10-10--11-12-|----12-10-8--8--------------|-----------

-|-----------------------------------|----------------------------|-----------

-|-----------------------------------|----------------------------|-----------

 

 

-|--------------|------------------------------|------------------------------

-|--------------|------------------------------|------------------------------

-|-11-----------|-11--------11--------11-------|------------------------------

-|----12-10vvvv-|----12-10-----12-10-----12-10-|------------------------------

-|--------------|------------------------------|------------------------------

-|--------------|------------------------------|------------------------------

 

 

-|------------------------------|--------------------------------|------------

-|------------------------------|--------------------------------|------------

-|------------------------------|--------------------------------|------------

-|--------------------------12\-|-10-10-10--11-12-12--12-12--12\-|------------

-|--------------------------12\-|----------------------------12\-|------------

-|-10-10-10--11-12-0--0-0-0-12\-|--------------------------------|------------

Bridge, Stone 4x Bridge, Mike

 

-|------------------------------|---------------------------------------------

-|------------------------------|---------------------------------------------

-|------------------------------|---------------------------------------------

-|--------------------------12\-|---------------------------------------------

-|--------------------------12\-|---------------------------------------------

-|-10-10-10--11-12-0--0-0---12\-|---------------------------------------------

Outro, Stone 4x

 

-|-----------------------------------|-------------------------------10\----|-

-|-------------------------------10\-|-------------------------------10\----|-

-|-12p10----10vvvv-------------------|-12p10----10vvvv-------x-x-x-x-10\----|-

-|-------12--------12p10-10h12-x-----|-------12--------12p10---------10\----|-

-|-----------------------------------|--------------------------------------|-

-|-----------------------------------|--------------------------------------|-

Outro, Mike 3x END!

 

 

 

Return to my to my Pearl Jam tabs page

The Tablature is Copyright its respective owners.

Sign Up For My Newsletter
Subscribe | Unsubscribe

Site Map | Disclaimer | Privacy Policy | Media Kit | Submissions/Corrections

Website © 2000-2014 mattsmusicpage.com. All rights reserved.

Legal & DMCA: Matt's Music Page has been providing lyrics and tabs in a legal way, paying royalties each year to a few organizations. Then, all lyrics and tabs were removed from the site. Now, there's a new owner to the site, which purchased it August 26, 2014, and he is in negotiation to obtain licensing from BMI at the moment. If you have a specific DMCA request -- please do not hesitate to contact me via the contact button on top. I will do my very best to keep this site fully legal.

Get our toolbar!

 

VINTAGE SORRENTO MUSIC JEWELRY BOX
$45.0
VINTAGE SORRENTO MUSIC JEWELRY BOX picture


VINTAGE LACQUERED MUSIC BOX JAPAN
$25.99
VINTAGE LACQUERED MUSIC BOX JAPAN picture


Vintage Kehlsteinhaus Bavaria Germany Colorscope Cow Bell View Master Music Box
$8.99
Vintage Kehlsteinhaus Bavaria Germany Colorscope Cow Bell View Master Music Box picture


VINTAGE SCHMIDT Signed Collectible Musical Turning Clown
$9.99
VINTAGE  SCHMIDT Signed Collectible Musical Turning Clown picture


Vintage - Linen - Postcard - Stage - Radio City Music Hall - New York City
$3.75
Vintage - Linen - Postcard - Stage - Radio City Music Hall - New York City   picture