Your One-Stop Source For
Music Lyrics
Bass and Guitar Tabs
and More...
Music Lyrics Bass and Guitar Tabs

 

The Tabs Are Below

Learn To Read Tab
Chords Handbook
Corrections & Additions
Get Official Tab
Pearl Jam tabs @ 911Tabs

 

Author/Artist: Pearl Jam

Title: Elderly Woman Behind The Counter In A Small Town

Album: Vs.

Transcribed by: Chris Wilson (Rhythm) and Evan Cowan (Fills)

Email: yokel@zip.com.au and icowan@marin.k12.ca.us

(Last Updated 03/04/99)

 

-|--2--2-2-3--|--3--3-3-3--|--3--3-3-3-3-3-3--|--3--3-3-3-3-3-3-3-|-----------

-|--3--3-3-3--|--3--3-3-3--|--3--3-3-3-3-3-3--|--3--3-3-3-3-3-3-3-|-----------

-|--2--2-2-2--|--0--0-0-0--|--0--0-0-0-0-0-0--|--0--0-0-0-0-0-0-0-|-----------

-|--0--0-0-0--|--2--2-2-2--|--0--0-0-0-0-0-0--|--2--2-2-2-2-2-2-2-|-----------

-|------------|--3--3-3-3--|--2--2-2-2-2-2-2--|--3--3-3-3-3-3-3-3-|-----------

-|------------|------------|------------------|-------------------|-----------

Verse

 

-|--3-3-3-3-3--|--3-3-3-3--|--------------------------------------------------

-|--3-3-3-3-3--|--3-3-3-3--|--------------------------------------------------

-|--0-0-0-0-0--|--0-0-0-0--|--------------------------------------------------

-|--0-0-0-0-0--|-----------|--------------------------------------------------

-|--2-2-2-2-2--|-----------|--------------------------------------------------

-|-------------|-----------|--------------------------------------------------

 

 

-|--2--2-2-3--|--3--3-3-3--|--3--3-3-3-3-3-3--|--3--3-3-3-3-3-3-3--|----------

-|--3--3-3-3--|--3--3-3-3--|--3--3-3-3-3-3-3--|--3--3-3-3-3-3-3-3--|----------

-|--2--2-2-2--|--0--0-0-0--|--0--0-0-0-0-0-0--|--0--0-0-0-0-0-0-0--|----------

-|--0--0-0-0--|--2--2-2-2--|--0--0-0-0-0-0-0--|--2--2-2-2-2-2-2-2--|----------

-|------------|--3--3-3-3--|--2--2-2-2-2-2-2--|--3--3-3-3-3-3-3-3--|----------

-|------------|------------|------------------|--------------------|----------

 

 

-|--3-3-3-3-3--|--3-3-3-3--|--------------------------------------------------

-|--3-3-3-3-3--|--3-3-3-3--|--------------------------------------------------

-|--0-0-0-0-0--|--0-0-0-0--|--------------------------------------------------

-|--0-0-0-0-0--|-----------|--------------------------------------------------

-|--2-2-2-2-2--|-----------|--------------------------------------------------

-|-------------|-----------|--------------------------------------------------

 

 

-|--2--2-2-3--|--3--3-3-3--|--3--3-3-3-3-3-3--|--3--3-3-3-3-3-3-3--|----------

-|--3--3-3-3--|--3--3-3-3--|--3--3-3-3-3-3-3--|--3--3-3-3-3-3-3-3--|----------

-|--2--2-2-2--|--0--0-0-0--|--0--0-0-0-0-0-0--|--0--0-0-0-0-0-0-0--|----------

-|--0--0-0-0--|--2--2-2-2--|--0--0-0-0-0-0-0--|--2--2-2-2-2-2-2-2--|----------

-|------------|--3--3-3-3--|--2--2-2-2-2-2-2--|--3--3-3-3-3-3-3-3--|----------

-|------------|------------|------------------|--------------------|----------

 

 

-|--3-3-3-3-3--|--3-3-3-3--|--------------------------------------------------

-|--3-3-3-3-3--|--3-3-3-3--|--------------------------------------------------

-|--0-0-0-0-0--|--0-0-0-0--|--------------------------------------------------

-|--0-0-0-0-0--|-----------|--------------------------------------------------

-|--2-2-2-2-2--|-----------|--------------------------------------------------

-|-------------|-----------|--------------------------------------------------

 

 

-|--2--2-2-3--|--3--3-3-3--|--3--3-3-3-3-3-3--|--3--3-3-3-3-3-3-3--|----------

-|--3--3-3-3--|--3--3-3-3--|--3--3-3-3-3-3-3--|--3--3-3-3-3-3-3-3--|----------

-|--2--2-2-2--|--0--0-0-0--|--0--0-0-0-0-0-0--|--0--0-0-0-0-0-0-0--|----------

-|--0--0-0-0--|--2--2-2-2--|--0--0-0-0-0-0-0--|--2--2-2-2-2-2-2-2--|----------

-|------------|--3--3-3-3--|--2--2-2-2-2-2-2--|--3--3-3-3-3-3-3-3--|----------

-|------------|------------|------------------|--------------------|----------

 

 

-|--3-3-3-3-3--|--3-3-3-3--|--------------------------------------------------

-|--3-3-3-3-3--|--3-3-3-3--|--------------------------------------------------

-|--0-0-0-0-0--|--0-0-0-0--|--------------------------------------------------

-|--0-0-0-0-0--|-----------|--------------------------------------------------

-|--2-2-2-2-2--|-----------|--------------------------------------------------

-|--3-3-3-3-3--|-----------|--------------------------------------------------

 

 

-|-------------|--0-0-0-0-0--|-------------|--0-0-0-0-0--|--3-3-3-3-3--|------

-|--1-1-1-1-1--|--0-0-0-0-0--|--1-1-1-1-1--|--0-0-0-0-0--|--3-3-3-3-3--|------

-|--0-0-0-0-0--|--2-2-2-2-2--|--0-0-0-0-0--|--2-2-2-2-2--|--0-0-0-0-0--|------

-|--2-2-2-2-2--|--2-2-2-2-2--|--2-2-2-2-2--|--2-2-2-2-2--|--2-2-2-2-2--|------

-|--3-3-3-3-3--|--0-0-0-0-0--|--3-3-3-3-3--|--0-0-0-0-0--|--3-3-3-3-3--|------

-|-------------|-------------|-------------|-------------|-------------|------

Pre-Chorus With Fill 1 With Fill 2

 

-|--0-0-0-0-0--|--0-0-0-0-0-0-0-0-0-0-0-0-0-0--|------------------------------

-|--0-0-0-0-0--|--0-0-0-0-0-0-0-0-0-0-0-0-0-0--|------------------------------

-|--2-2-2-2-2--|--0-0-0-0-0-0-0-0-0-0-0-0-0-0--|------------------------------

-|--2-2-2-2-2--|--2-2-2-2-2-2-2-2-2-2----------|------------------------------

-|--0-0-0-0-0--|--2-2-2-2-2-2-2-2-2-2----------|------------------------------

-|-------------|--0-0-0-0-0-0-0-0-0-0----------|------------------------------

 

 

-|--2--2-2-3--|--3-3-3-3-3--|--3-3-3-3-3-3-3--|--3-3-3-3-3-3-3--|-------------

-|--3--3-3-3--|--3-3-3-3-3--|--3-3-3-3-3-3-3--|--3-3-3-3-3-3-3--|-------------

-|--2--2-2-2--|--0-0-0-0-0--|--0-0-0-0-0-0-0--|--0-0-0-0-0-0-0--|-------------

-|--0--0-0-0--|--2-2-2-2-2--|--0-0-0-0-0-0-0--|--2-2-2-2-2-2-2--|-------------

-|------------|--3-3-3-3-3--|--2-2-2-2-2-2-2--|--3-3-3-3-3-3-3--|-------------

-|------------|-------------|-----------------|-----------------|-------------

Chorus With Fill 3

 

-|--3-3-3-3-3-3-3--|--3-3-3-3--|----------------------------------------------

-|--3-3-3-3-3-3-3--|--3-3-3-3--|----------------------------------------------

-|--0-0-0-0-0-0-0--|--0-0-0-0--|----------------------------------------------

-|--0-0-0-0-0-0-0--|-----------|----------------------------------------------

-|--2-2-2-2-2-2-2--|-----------|----------------------------------------------

-|--3-3-3-3-3-3-3--|-----------|----------------------------------------------

With Fill 4

 

-|--2--2-2-3--|--3-3-3-3-3--|--3-3-3-3-3-3-3--|--3-3-3-3-3-3-3--|-------------

-|--3--3-3-3--|--3-3-3-3-3--|--3-3-3-3-3-3-3--|--3-3-3-3-3-3-3--|-------------

-|--2--2-2-2--|--0-0-0-0-0--|--0-0-0-0-0-0-0--|--0-0-0-0-0-0-0--|-------------

-|--0--0-0-0--|--2-2-2-2-2--|--0-0-0-0-0-0-0--|--2-2-2-2-2-2-2--|-------------

-|------------|--3-3-3-3-3--|--2-2-2-2-2-2-2--|--3-3-3-3-3-3-3--|-------------

-|------------|-------------|-----------------|-----------------|-------------

With Fill 5

 

-|--3-3-3-3-3--|--3-3-3-3--|--------------------------------------------------

-|--3-3-3-3-3--|--3-3-3-3--|--------------------------------------------------

-|--0-0-0-0-0--|--0-0-0-0--|--------------------------------------------------

-|--0-0-0-0-0--|-----------|--------------------------------------------------

-|--2-2-2-2-2--|-----------|--------------------------------------------------

-|--3-3-3-3-3--|-----------|--------------------------------------------------

With Fill 6

 

-|--2--2-2-3--|--3-3-3-3-3--|--3-3-3-3-3-3-3--|--3-3-3-3-3-3-3--|-------------

-|--3--3-3-3--|--3-3-3-3-3--|--3-3-3-3-3-3-3--|--3-3-3-3-3-3-3--|-------------

-|--2--2-2-2--|--0-0-0-0-0--|--0-0-0-0-0-0-0--|--0-0-0-0-0-0-0--|-------------

-|--0--0-0-0--|--2-2-2-2-2--|--0-0-0-0-0-0-0--|--2-2-2-2-2-2-2--|-------------

-|------------|--3-3-3-3-3--|--2-2-2-2-2-2-2--|--3-3-3-3-3-3-3--|-------------

-|------------|-------------|-----------------|-----------------|-------------

Verse With Fill 7

 

-|--3-3-3-3-3--|--3-3-3-3--|--------------------------------------------------

-|--3-3-3-3-3--|--3-3-3-3--|--------------------------------------------------

-|--0-0-0-0-0--|--0-0-0-0--|--------------------------------------------------

-|--0-0-0-0-0--|-----------|--------------------------------------------------

-|--2-2-2-2-2--|-----------|--------------------------------------------------

-|-------------|-----------|--------------------------------------------------

 

 

-|--2--2-2-3--|--3-3-3-3-3--|--3-3-3-3-3-3-3--|--3-3-3-3-3-3-3--|-------------

-|--3--3-3-3--|--3-3-3-3-3--|--3-3-3-3-3-3-3--|--3-3-3-3-3-3-3--|-------------

-|--2--2-2-2--|--0-0-0-0-0--|--0-0-0-0-0-0-0--|--0-0-0-0-0-0-0--|-------------

-|--0--0-0-0--|--2-2-2-2-2--|--0-0-0-0-0-0-0--|--2-2-2-2-2-2-2--|-------------

-|------------|--3-3-3-3-3--|--2-2-2-2-2-2-2--|--3-3-3-3-3-3-3--|-------------

-|------------|-------------|-----------------|-----------------|-------------

With Fill 8 With Fill 9

 

-|--3-3-3-3-3--|--3-3-3-3--|--------------------------------------------------

-|--3-3-3-3-3--|--3-3-3-3--|--------------------------------------------------

-|--0-0-0-0-0--|--0-0-0-0--|--------------------------------------------------

-|--0-0-0-0-0--|-----------|--------------------------------------------------

-|--2-2-2-2-2--|-----------|--------------------------------------------------

-|-------------|-----------|--------------------------------------------------

 

 

-|--2--2-2-3--|--3-3-3-3-3--|--3-3-3-3-3-3-3--|--3-3-3-3-3-3-3--|-------------

-|--3--3-3-3--|--3-3-3-3-3--|--3-3-3-3-3-3-3--|--3-3-3-3-3-3-3--|-------------

-|--2--2-2-2--|--0-0-0-0-0--|--0-0-0-0-0-0-0--|--0-0-0-0-0-0-0--|-------------

-|--0--0-0-0--|--2-2-2-2-2--|--0-0-0-0-0-0-0--|--2-2-2-2-2-2-2--|-------------

-|------------|--3-3-3-3-3--|--2-2-2-2-2-2-2--|--3-3-3-3-3-3-3--|-------------

-|------------|-------------|-----------------|-----------------|-------------

With Fill 10

 

-|--3-3-3-3-3--|--3-3-3-3--|--------------------------------------------------

-|--3-3-3-3-3--|--3-3-3-3--|--------------------------------------------------

-|--0-0-0-0-0--|--0-0-0-0--|--------------------------------------------------

-|--0-0-0-0-0--|-----------|--------------------------------------------------

-|--2-2-2-2-2--|-----------|--------------------------------------------------

-|-------------|-----------|--------------------------------------------------

With Fill 11

 

-|--2--2-2-3--|--3-3-3-3-3--|--3-3-3-3-3-3-3--|--3-3-3-3-3-3-3--|-------------

-|--3--3-3-3--|--3-3-3-3-3--|--3-3-3-3-3-3-3--|--3-3-3-3-3-3-3--|-------------

-|--2--2-2-2--|--0-0-0-0-0--|--0-0-0-0-0-0-0--|--0-0-0-0-0-0-0--|-------------

-|--0--0-0-0--|--2-2-2-2-2--|--0-0-0-0-0-0-0--|--2-2-2-2-2-2-2--|-------------

-|------------|--3-3-3-3-3--|--2-2-2-2-2-2-2--|--3-3-3-3-3-3-3--|-------------

-|------------|-------------|-----------------|-----------------|-------------

With Fill 12

 

-|--3-3-3-3-3--|--3-3-3-3--|--------------------------------------------------

-|--3-3-3-3-3--|--3-3-3-3--|--------------------------------------------------

-|--0-0-0-0-0--|--0-0-0-0--|--------------------------------------------------

-|--0-0-0-0-0--|-----------|--------------------------------------------------

-|--2-2-2-2-2--|-----------|--------------------------------------------------

-|--3-3-3-3-3--|-----------|--------------------------------------------------

 

 

-|-------------|--0-0-0-0-0--|-------------|--0-0-0-0-0--|--3-3-3-3-3--|------

-|--1-1-1-1-1--|--0-0-0-0-0--|--1-1-1-1-1--|--0-0-0-0-0--|--3-3-3-3-3--|------

-|--0-0-0-0-0--|--2-2-2-2-2--|--0-0-0-0-0--|--2-2-2-2-2--|--0-0-0-0-0--|------

-|--2-2-2-2-2--|--2-2-2-2-2--|--2-2-2-2-2--|--2-2-2-2-2--|--2-2-2-2-2--|------

-|--3-3-3-3-3--|--0-0-0-0-0--|--3-3-3-3-3--|--0-0-0-0-0--|--3-3-3-3-3--|------

-|-------------|-------------|-------------|-------------|-------------|------

Pre-Chorus With Fill 13 With Fill 14 With Fill 14

 

-|--0-0-0-0-0--|--0-0-0-0-0-0-0-0-0-0-0-0--|----------------------------------

-|--0-0-0-0-0--|--0-0-0-0-0-0-0-0-0-0-0-0--|----------------------------------

-|--2-2-2-2-2--|--0-0-0-0-0-0-0-0-0-0-0-0--|----------------------------------

-|--2-2-2-2-2--|--2-2-2-2-2-2-2-2----------|----------------------------------

-|--0-0-0-0-0--|--2-2-2-2-2-2-2-2----------|----------------------------------

-|-------------|--0-0-0-0-0-0-0-0----------|----------------------------------

With Fill 14 With Fill 15

 

-|--2--2-2-3--|--3-3-3-3-3--|--3-3-3-3-3-3-3-3--|--3-3-3-3-3-3-3-3--|---------

-|--3--3-3-3--|--3-3-3-3-3--|--3-3-3-3-3-3-3-3--|--3-3-3-3-3-3-3-3--|---------

-|--2--2-2-2--|--0-0-0-0-0--|--0-0-0-0-0-0-0-0--|--0-0-0-0-0-0-0-0--|---------

-|--0--0-0-0--|--2-2-2-2-2--|--0-0-0-0-0-0-0-0--|--2-2-2-2-2-2-2-2--|---------

-|------------|--3-3-3-3-3--|--2-2-2-2-2-2-2-2--|--3-3-3-3-3-3-3-3--|---------

-|------------|-------------|-------------------|-------------------|---------

Verse With Fill 16

 

-|--3-3-3-3-3--|--3-3-3-3--|--------------------------------------------------

-|--3-3-3-3-3--|--3-3-3-3--|--------------------------------------------------

-|--0-0-0-0-0--|--0-0-0-0--|--------------------------------------------------

-|--0-0-0-0-0--|-----------|--------------------------------------------------

-|--2-2-2-2-2--|-----------|--------------------------------------------------

-|-------------|-----------|--------------------------------------------------

 

 

-|--2--2-2-3--|--3-3-3-3-3--|--3-3-3-3-3-3-3-3--|--3-3-3-3-3-3-3-3--|---------

-|--3--3-3-3--|--3-3-3-3-3--|--3-3-3-3-3-3-3-3--|--3-3-3-3-3-3-3-3--|---------

-|--2--2-2-2--|--0-0-0-0-0--|--0-0-0-0-0-0-0-0--|--0-0-0-0-0-0-0-0--|---------

-|--0--0-0-0--|--2-2-2-2-2--|--0-0-0-0-0-0-0-0--|--2-2-2-2-2-2-2-2--|---------

-|------------|--3-3-3-3-3--|--2-2-2-2-2-2-2-2--|--3-3-3-3-3-3-3-3--|---------

-|------------|-------------|-------------------|-------------------|---------

 

 

-|--3-3-3-3-3--|--3-3-3-3--|--------------------------------------------------

-|--3-3-3-3-3--|--3-3-3-3--|--------------------------------------------------

-|--0-0-0-0-0--|--0-0-0-0--|--------------------------------------------------

-|--0-0-0-0-0--|-----------|--------------------------------------------------

-|--2-2-2-2-2--|-----------|--------------------------------------------------

-|-------------|-----------|--------------------------------------------------

 

 

-|--2--2-2-3--|--3-3-3-3-3--|--3-3-3-3-3-3-3-3--|--3-3-3-3-3-3-3-3--|---------

-|--3--3-3-3--|--3-3-3-3-3--|--3-3-3-3-3-3-3-3--|--3-3-3-3-3-3-3-3--|---------

-|--2--2-2-2--|--0-0-0-0-0--|--0-0-0-0-0-0-0-0--|--0-0-0-0-0-0-0-0--|---------

-|--0--0-0-0--|--2-2-2-2-2--|--0-0-0-0-0-0-0-0--|--2-2-2-2-2-2-2-2--|---------

-|------------|--3-3-3-3-3--|--2-2-2-2-2-2-2-2--|--3-3-3-3-3-3-3-3--|---------

-|------------|-------------|-------------------|-------------------|---------

 

 

-|--3-3-3-3-3--|--3-3-3-3--|--------------------------------------------------

-|--3-3-3-3-3--|--3-3-3-3--|--------------------------------------------------

-|--0-0-0-0-0--|--0-0-0-0--|--------------------------------------------------

-|--0-0-0-0-0--|-----------|--------------------------------------------------

-|--2-2-2-2-2--|-----------|--------------------------------------------------

-|-------------|-----------|--------------------------------------------------

 

 

-|--2--2-2-3--|--3-3-3-3-3--|--3-3-3-3-3-3-3-3--|--3-3-3-3-3-3-3-3--|---------

-|--3--3-3-3--|--3-3-3-3-3--|--3-3-3-3-3-3-3-3--|--3-3-3-3-3-3-3-3--|---------

-|--2--2-2-2--|--0-0-0-0-0--|--0-0-0-0-0-0-0-0--|--0-0-0-0-0-0-0-0--|---------

-|--0--0-0-0--|--2-2-2-2-2--|--0-0-0-0-0-0-0-0--|--2-2-2-2-2-2-2-2--|---------

-|------------|--3-3-3-3-3--|--2-2-2-2-2-2-2-2--|--3-3-3-3-3-3-3-3--|---------

-|------------|-------------|-------------------|-------------------|---------

With Fill 17

 

-|--3-3-3-3-3--|--3-3-3-3--|--------------------------------------------------

-|--3-3-3-3-3--|--3-3-3-3--|--------------------------------------------------

-|--0-0-0-0-0--|--0-0-0-0--|--------------------------------------------------

-|--0-0-0-0-0--|-----------|--------------------------------------------------

-|--2-2-2-2-2--|-----------|--------------------------------------------------

-|-------------|-----------|--------------------------------------------------

 

 

-|--2--2-2-3--|--3-3-3-3-3--|--3-3-3-3-3-3-3-3--|--3-3-3-3-3-3-3-3--|---------

-|--3--3-3-3--|--3-3-3-3-3--|--3-3-3-3-3-3-3-3--|--3-3-3-3-3-3-3-3--|---------

-|--2--2-2-2--|--0-0-0-0-0--|--0-0-0-0-0-0-0-0--|--0-0-0-0-0-0-0-0--|---------

-|--0--0-0-0--|--2-2-2-2-2--|--0-0-0-0-0-0-0-0--|--2-2-2-2-2-2-2-2--|---------

-|------------|--3-3-3-3-3--|--2-2-2-2-2-2-2-2--|--3-3-3-3-3-3-3-3--|---------

-|------------|-------------|-------------------|-------------------|---------

Chorus With Fill 18

 

-|--3-3-3-3-3--|--3-3-3-3--|--------------------------------------------------

-|--3-3-3-3-3--|--3-3-3-3--|--------------------------------------------------

-|--0-0-0-0-0--|--0-0-0-0--|--------------------------------------------------

-|--0-0-0-0-0--|-----------|--------------------------------------------------

-|--2-2-2-2-2--|-----------|--------------------------------------------------

-|--3-3-3-3-3--|-----------|--------------------------------------------------

With Fill 19

 

-|--2--2-2-3--|--3-3-3-3-3--|--3-3-3-3-3-3-3-3--|--3-3-3-3-3-3-3-3--|---------

-|--3--3-3-3--|--3-3-3-3-3--|--3-3-3-3-3-3-3-3--|--3-3-3-3-3-3-3-3--|---------

-|--2--2-2-2--|--0-0-0-0-0--|--0-0-0-0-0-0-0-0--|--0-0-0-0-0-0-0-0--|---------

-|--0--0-0-0--|--2-2-2-2-2--|--0-0-0-0-0-0-0-0--|--2-2-2-2-2-2-2-2--|---------

-|------------|--3-3-3-3-3--|--2-2-2-2-2-2-2-2--|--3-3-3-3-3-3-3-3--|---------

-|------------|-------------|-------------------|-------------------|---------

With Fill 20

 

-|--3-3-3-3-3--|--3-3-3-3--|--------------------------------------------------

-|--3-3-3-3-3--|--3-3-3-3--|--------------------------------------------------

-|--0-0-0-0-0--|--0-0-0-0--|--------------------------------------------------

-|--0-0-0-0-0--|-----------|--------------------------------------------------

-|--2-2-2-2-2--|-----------|--------------------------------------------------

-|--3-3-3-3-3--|-----------|--------------------------------------------------

With Fill 21

 

-|--2--2-2-3--|--3-3-3-3-3--|--3-3-3-3-3-3-3-3--|--3-3-3-3-3-3-3-3--|---------

-|--3--3-3-3--|--3-3-3-3-3--|--3-3-3-3-3-3-3-3--|--3-3-3-3-3-3-3-3--|---------

-|--2--2-2-2--|--0-0-0-0-0--|--0-0-0-0-0-0-0-0--|--0-0-0-0-0-0-0-0--|---------

-|--0--0-0-0--|--2-2-2-2-2--|--0-0-0-0-0-0-0-0--|--2-2-2-2-2-2-2-2--|---------

-|------------|--3-3-3-3-3--|--2-2-2-2-2-2-2-2--|--3-3-3-3-3-3-3-3--|---------

-|------------|-------------|-------------------|-------------------|---------

With Fill 22

 

-|--3-3-3-3-3--|--3-3-3-3--|--------------------------------------------------

-|--3-3-3-3-3--|--3-3-3-3--|--------------------------------------------------

-|--0-0-0-0-0--|--0-0-0-0--|--------------------------------------------------

-|--0-0-0-0-0--|-----------|--------------------------------------------------

-|--2-2-2-2-2--|-----------|--------------------------------------------------

-|--3-3-3-3-3--|-----------|--------------------------------------------------

 

 

-|--2--2-2-3--|--3-3-3-3-3--|--3-3-3-3-3-3-3-3--|--3-3-3-3-3-3-3-3--|---------

-|--3--3-3-3--|--3-3-3-3-3--|--3-3-3-3-3-3-3-3--|--3-3-3-3-3-3-3-3--|---------

-|--2--2-2-2--|--0-0-0-0-0--|--0-0-0-0-0-0-0-0--|--0-0-0-0-0-0-0-0--|---------

-|--0--0-0-0--|--2-2-2-2-2--|--0-0-0-0-0-0-0-0--|--2-2-2-2-2-2-2-2--|---------

-|------------|--3-3-3-3-3--|--2-2-2-2-2-2-2-2--|--3-3-3-3-3-3-3-3--|---------

-|------------|-------------|-------------------|-------------------|---------

With Fill 23

 

-|--3-3-3-3-3--|--3-3-3-3--|--------------------------------------------------

-|--3-3-3-3-3--|--3-3-3-3--|--------------------------------------------------

-|--0-0-0-0-0--|--0-0-0-0--|--------------------------------------------------

-|--0-0-0-0-0--|-----------|--------------------------------------------------

-|--2-2-2-2-2--|-----------|--------------------------------------------------

-|--3-3-3-3-3--|-----------|--------------------------------------------------

Fade Away...

 

-|---------------|------------------|--10-----10--|---------------------|-----

-|---------------|--2--2-2--2-2--2--|--10h12--10--|---------------------|-----

-|--0--3p2p0--0--|--2--2-2--2-2--2--|-------------|--11h12p11-12p11-----|-----

-|---------------|--2--2-2--2-2--2--|-------------|-----------------12--|-----

-|---------------|--0--0-0--0-0--0--|-------------|---------------------|-----

-|---------------|------------------|-------------|---------------------|-----

Fill 1 Fill 2 Fill 3 Fill 4

 

-|--10----10--|------------|------------|------------|------------------------

-|--10h12-10--|------------|-----3------|--------10--|------------------------

-|------------|--12p11-----|--0--3p2p0--|---0--------|------------------------

-|------------|--------12--|------------|------------|------------------------

-|------------|------------|------------|------------|------------------------

-|------------|------------|------------|------------|------------------------

Fill 5 Fill 6 Fill 7 Fill 8

 

-|-------------------------|----------|-----------------------|---------------

-|--------10--12\10---10/--|--3-------|-----------------------|---------------

-|------------------0------|--3p2-----|------7-7h9p7-----7----|---------------

-|--10/12------------------|----------|--7h9---------7h9---9--|---------------

-|-------------------------|----------|-----------------------|---------------

-|-------------------------|----------|-----------------------|---------------

Fill 9 Fill 10 Fill 11

 

-|----------------------------------|------------|-----------|----------------

-|--0------------7------7-----------|------------|--2-2-2-2--|----------------

-|---------------7h9p7--7-----------|--9--7------|--2-2-2-2--|----------------

-|----7h9-7h9--------------------5--|--9---------|--2-2-2-2--|----------------

-|---------------------------5h7----|------------|--0-0-0-0--|----------------

-|----------------------------------|------------|-----------|----------------

Fill 12 Fill 13 Fill 14

 

-|----------------|--/14-14--14---14--12--10----10-----------|----------------

-|-------------3--|--/15-15--15---15------10h12-10-----------|----------------

-|--3p2p0-0-/4----|--------------------------------11\---4/--|----------------

-|----------------|------------------------------------------|----------------

-|----------------|------------------------------------------|----------------

-|----------------|------------------------------------------|----------------

Fill 15 Fill 16

 

-|--14-14-14-14--|--------------|--15-----------|--------|----------|---------

-|---------------|--3-----------|-----15--------|--------|--3-------|---------

-|---------------|--3/2p0-------|--------14b16--|--/2-0--|--3/2p0---|---------

-|---------------|--------------|---------------|--------|----------|---------

-|---------------|--------------|---------------|--------|----------|---------

-|---------------|--------------|---------------|--------|----------|---------

Fill 17 Fill 18 Fill 19 Fill 20 Fill 21

 

-|------------------------------------------------|---------------------------

-|------------------7----7------------------------|---------------------------

-|--0---3p2--0------7h9--7------0------0--0----0--|---------------------------

-|--------------------------8p7-----/7-------2----|---------------------------

-|----------------------------------/7------------|---------------------------

-|------------------------------------------------|---------------------------

Fill 22

 

-|------------------------------------------------------|---------------------

-|--7----7-----7------------7----7----------------------|---------------------

-|--7h9--7--0--7------0-0---7h9--7------0---0-----------|---------------------

-|----------0--7------0-0----------8/7---------------0--|---------------------

-|----------------------------------------3----5p3p2----|---------------------

-|------------------------------------------------------|---------------------

Fill 23 Shows Over!

 

 

 

Return to my to my Pearl Jam tabs page

The Tablature is Copyright its respective owners.

Sign Up For My Newsletter
Subscribe | Unsubscribe

Site Map | Disclaimer | Privacy Policy | Media Kit | Submissions/Corrections

Website © 2000-2014 mattsmusicpage.com. All rights reserved.

Legal & DMCA: Matt's Music Page has been providing lyrics and tabs in a legal way, paying royalties each year to a few organizations. Then, all lyrics and tabs were removed from the site. Now, there's a new owner to the site, which purchased it August 26, 2014, and he is in negotiation to obtain licensing from BMI at the moment. If you have a specific DMCA request -- please do not hesitate to contact me via the contact button on top. I will do my very best to keep this site fully legal.

Get our toolbar!