Your One-Stop Source For
Music Lyrics
Bass and Guitar Tabs
and More...
Music Lyrics Bass and Guitar Tabs

 

The Tabs Are Below

Learn To Read Tab
Chords Handbook
Corrections & Additions
Get Official Tab
Pearl Jam tabs @ 911Tabs

 

 

 

This is Daughter by Pearl Jam

 

()=hammer

^=bend

~=vibrato

\=slide

 

 

This is the intro\verse\chourus

 

 

G

 

E-3--3-3------------x-x-3------------------------3--3-3-----

B-3--3-3------------x-x-3------------------------3--3-3-----

G-4--4-4--2--4-4-4--x-x-4--x-x--4-4-x-x-2-2-x-x--4--4-4-x-x-

D-5--5-5------------x-x-5--x-x------x-x-----x-x--5--5-5-x-x-

A-5--5-5--3--5-5-5--x-x-5--x-x--5-5-x-x-3-3-x-x--5--5-5-x-x-

E-3--3-3------------x-x-3------------------------3--3-3-----

 

E----------------

B----------------

G-2--4-4-4-x-x-2-

D----------x-x---

A-3--5-5-5-x-x-3-

E----------------

 

On the last notes, you play them about 7 times,

listen to song for rythum.

 

This is the rythum guitar for the verse

 

E---------

B---------

G-12---12-

D-12---12- That is about it, just do that alot.

A---14----

E---------

 

 

This is the pre-chorus:

 

E-----------------------

B-----------------------

G-----------------------

D-12--12--12--x-x-11-11-That's about it

A-10--10--10--x-x-10-10-

E-----------------------

 

 

 

This is the solo, it might be kind of hard to understand, sorry about that.

 

E--------------------------------------------------------------

B--------------------------------------------------------------

G--------12--------12--------12--------12-12-------------------

D-12-(14)---12-(14)---12-(14)---12-(14)------14-12----12-------

A--------------------------------------------------14----14-14-

E--------------------------------------------------------------

 

E---------------

B---------------

G---------------

D---------------

A-12-10-12-10~--

E---------------

 

E--------------------------------------

B--------------------------------------

G--------------------------------------

D---------------12---------------------

A----12^--12^------14-12\10-10-(12)-10-

E-3------------------------------------

 

E------------------------------------------------------

B------------------------------------------------------

G-14--(12-14-12)------------(12-14-12)-----12----------

D----------------14-12-----------------14--12----------

A----------------------14---------------------14-12-10-

E------------------------------------------------------

pLAY THAT TWICE THEN PLAY:

 

E-----------------------------------

B-12---12---------------------------

G----14---14^-14-14-12-14-12~~~~~~--

D-----------------------------------

A-----------------------------------

E-----------------------------------

 

When you bend the 14, hold it and play the next

notes that way

 

I spread the solo out into four parts so it's easier

to understand.

 

Please send questions, comments, or want a tab uploaded,

E-mail me at Chris7878

 

Return to my to my Pearl Jam tabs page

The Tablature is Copyright its respective owners.

Sign Up For My Newsletter
Subscribe | Unsubscribe

Site Map | Disclaimer | Privacy Policy | Media Kit | Submissions/Corrections

Website © 2000-2014 mattsmusicpage.com. All rights reserved.

Legal & DMCA: Matt's Music Page has been providing lyrics and tabs in a legal way, paying royalties each year to a few organizations. Then, all lyrics and tabs were removed from the site. Now, there's a new owner to the site, which purchased it August 26, 2014, and he is in negotiation to obtain licensing from BMI at the moment. If you have a specific DMCA request -- please do not hesitate to contact me via the contact button on top. I will do my very best to keep this site fully legal.

Get our toolbar!

 

VINTAGE SORRENTO MUSIC JEWELRY BOX
$45.0
VINTAGE SORRENTO MUSIC JEWELRY BOX picture


VINTAGE LACQUERED MUSIC BOX JAPAN
$25.99
VINTAGE LACQUERED MUSIC BOX JAPAN picture


Vintage Kehlsteinhaus Bavaria Germany Colorscope Cow Bell View Master Music Box
$8.99
Vintage Kehlsteinhaus Bavaria Germany Colorscope Cow Bell View Master Music Box picture


VINTAGE SCHMIDT Signed Collectible Musical Turning Clown
$9.99
VINTAGE  SCHMIDT Signed Collectible Musical Turning Clown picture


Vintage - Linen - Postcard - Stage - Radio City Music Hall - New York City
$3.75
Vintage - Linen - Postcard - Stage - Radio City Music Hall - New York City   picture