Your One-Stop Source For
Music Lyrics
Bass and Guitar Tabs
and More...
Music Lyrics Bass and Guitar Tabs

 

The Tabs Are Below

Learn To Read Tab
Chords Handbook
Corrections & Additions
Get Official Tab
Pearl Jam tabs @ 911Tabs

 

Author/Artist: Mike McCready

Title: Call Me A Dog

Album: Temple Of The Dog

Transcribed by: Evan Cowan

Email: icowan@marin.k12.ca.us

 

-|----------------------------------------------------------------------|-----

-|----------------------------------------------------------------------|-----

-|-12b14vvvvvvvv--7b9-7b9-7b9---7b9-7b9---7b9-7b9-7b9r7p5----9----------|-----

-|--------------------------------------------------------7-------------|-----

-|----------------------------------------------------------------------|-----

-|-------------------------------------------------------------7\--/15\-|-----

 

 

-|----------------------------------------------|-----------------------------

-|----------------------------------------------|-----------------------------

-|----------------------------------5---7-5-7-5-|-----------------------------

-|------------------------------5-7-------------|-----------------------------

-|-----3--3-3-5b6r5-3---3-3-5h7-----------------|-----------------------------

-|-3h5----------------5-------------------------|-----------------------------

 

 

-|-------------------------------------|--------10---10----------|------------

-|-----8p5h8p5h8p5---------------------|----8------8----8---8----|------------

-|-7b9-------------7b9r7-5---5h7-5vvvv-|-/9---9-----------9---9--|------------

-|-------------------------7-----------|-------------------------|------------

-|-------------------------------------|-------------------------|------------

-|-------------------------------------|-------------------------|------------

 

 

-|-----8----8----8----------|-10p8--------10p8-----------------|--------------

-|-/10---10---10---10---8---|------10p8--------10p8---/10--10\-|--------------

-|--------------------9---9-|-----------9-----------9----------|--------------

-|--------------------------|----------------------------------|--------------

-|--------------------------|----------------------------------|--------------

-|--------------------------|----------------------------------|--------------

 

 

-|------------------|-------------------------------------------------|-------

-|-/10--13-15-15-15-|-13h15p13p10-13h15p13p10-13h15p13p10-13h15p13p10-|-------

-|------------------|-------------------------------------------------|-------

-|------------------|-------------------------------------------------|-------

-|------------------|-------------------------------------------------|-------

-|------------------|-------------------------------------------------|-------

 

 

-|--------------------------------------------------------------|-------------

-|-13h15p13p10-13h15p13p10-13h15p13p10-13h15p13p10-15-13-10vvvv-|-------------

-|--------------------------------------------------------------|-------------

-|--------------------------------------------------------------|-------------

-|--------------------------------------------------------------|-------------

-|--------------------------------------------------------------|-------------

 

 

-|-----------------|----------------------------------------------------------

-|-----------------|----------------------------------------------------------

-|-12-12----12vvvv-|----------------------------------------------------------

-|-------14--------|----------------------------------------------------------

-|-----------------|----------------------------------------------------------

-|-----------------|----------------------------------------------------------

 

 

 

 

 

 

Return to my to my Pearl Jam tabs page

The Tablature is Copyright its respective owners.

Sign Up For My Newsletter
Subscribe | Unsubscribe

Site Map | Disclaimer | Privacy Policy | Media Kit | Submissions/Corrections

Website © 2000-2014 mattsmusicpage.com. All rights reserved.

Legal & DMCA: Matt's Music Page has been providing lyrics and tabs in a legal way, paying royalties each year to a few organizations. Then, all lyrics and tabs were removed from the site. Now, there's a new owner to the site, which purchased it August 26, 2014, and he is in negotiation to obtain licensing from BMI at the moment. If you have a specific DMCA request -- please do not hesitate to contact me via the contact button on top. I will do my very best to keep this site fully legal.

Get our toolbar!

 

® Elvis Presley Figure with Bars & Vinyl Record Stage
$23.99
® Elvis Presley Figure with Bars & Vinyl Record Stage picture


THE LONGINES SYMPHONETTE "SENTIMENTAL JOURNEY" VINTAGE VINYL ALBUM RECORD BOWL
$19.99
 THE LONGINES SYMPHONETTE


African Ghana Medley Vinyl Phono Record Beads (8mm) Ghana
$15.0
African Ghana Medley Vinyl Phono Record Beads (8mm)  Ghana picture


African Yellow Vinyl Phono Record Beads (6mm) Ghana
$12.0
African Yellow Vinyl Phono Record Beads (6mm)  Ghana picture


African Vintage Vinyl Phono Record Beads (7mm - Set of 4) Ghana
$69.0
African Vintage Vinyl Phono Record Beads (7mm - Set of 4)  Ghana picture