Your One-Stop Source For
Music Lyrics
Bass and Guitar Tabs
and More...
>Music Lyrics Bass and Guitar Tabs

 

The Tabs Are Below

Learn To Read Tab
Chords Handbook
Corrections & Additions
Get Official Tab
Pearl Jam tabs @ 911Tabs

 

PEARL JAM "WISHLIST" -BASS TAB

--------------------

I saw lettermans feature on pearl jam where they

preformed this live and thought it would be an

awesome song to play. So i tabbed it.

Tune normaly eadg

 

Intro and first verse:

|---------------|

|---------------|

|---------------|

|-8-------------|

1& 2 & 3 & 4 &

 

Jeff plays a C on the beginning of each bar and every

fourth time play an extra C 1/2 a beat before the bar

|---------------|-----------|

|---------------|-----------|

|---------------|-----------|

|-8------------8|8----------|

1& 2 & 3 & 4 & 1 &

(every fourth time)

 

This is repeated up until the chorus

Chorus:

|-|---------------|--------------------|

|-|---------------|--------------------|

|-|-8-8/10\8------|-------8/10/12-10---|

|8|----------10-8-|-10/12------------8-|

&

|---------------|---------------|

|---------------|---------------|

|-8-8/10\8------|---------------|

|----------10-8-|-8-5-3-1-1-1-1-|

 

|-----------------|

|-----------------|

|-----------------|

|-1-1-1-1-1-1-1-1-|

 

Verse 2: (same As first verse)

Chorus: same riff repeated But F at the end is held for

two bars

|-----------------|

|-----------------|

|-----------------|

|-1-1-1-1-1-1-1-1-| x2

 

Interlude:

This is the basic G F C progression that jeff plays slightly

different each time

|---------------------------------|

|---------------------------------|

|-----------------3-3-3-3-0-2-3---|

|-3-3-3-3-1-1-1-1---------------3-|

G F C

 

|-----------------------------------|

|-------------------------------2---|

|-----------------3-3-3-3-0-2-3-----|

|-3-3-3-3-1-1-1-1-----------------3-|

G F C

 

|-----------------|

|-----------------|

|-----------------|

|-3-3-3-3-1-1-1-1-| F is held a while

G F

 

The final chorus is the same as the second

and during the guitar solo the verse is played.

 

h = hammeron

p = pulloff

~ = vibrato

/ = slide up

\ = slide down

(X)= hold note (let ring)

 

Tabbed by Mark Linwood

 

Hint suggesstions or comments to (Rlinwood@powerup.com.au)

I will reply to all emails

 

Return to my to my Pearl Jam bass tabs page

The Tablature is Copyright its respective owners.

Sign Up For My Newsletter
Subscribe | Unsubscribe

Site Map | Disclaimer | Privacy Policy | Media Kit | Submissions/Corrections

Website © 2000-2014 mattsmusicpage.com. All rights reserved.

Legal & DMCA: Matt's Music Page has been providing lyrics and tabs in a legal way, paying royalties each year to a few organizations. Then, all lyrics and tabs were removed from the site. Now, there's a new owner to the site, which purchased it August 26, 2014, and he is in negotiation to obtain licensing from BMI at the moment. If you have a specific DMCA request -- please do not hesitate to contact me via the contact button on top. I will do my very best to keep this site fully legal.

Get our toolbar!

 

C36/ Easter Greetings Holiday Postcard 1923 Dressed Rabbit Playing Banjo 32
$7.0
C36/ Easter Greetings Holiday Postcard 1923 Dressed Rabbit Playing Banjo 32 picture


MEMPHIS PROTOTYPE GOLD BANJO & BLUE GUITAR TREBLE CLEF NOTE Hard Rock Cafe PIN
$39.99
MEMPHIS PROTOTYPE GOLD BANJO & BLUE GUITAR TREBLE CLEF NOTE Hard Rock Cafe PIN picture


OLD LARGE PHOTO, AUSTRALIAN BUSH PET, BANJO PATERSON c1905
$5.69
OLD LARGE PHOTO, AUSTRALIAN BUSH PET, BANJO PATERSON c1905 picture


FENDER BANJO ( CONCERT TONE 5-STRING + 2 ) 1967 Vintage Jazz magazine PROMO Ad
$15.95
FENDER BANJO ( CONCERT TONE 5-STRING + 2 ) 1967 Vintage Jazz magazine PROMO Ad picture


Denneys Harley Davidson Lrg t shirt Branson MO Guitar Banjo Retro Microphone
$8.79
Denneys Harley Davidson Lrg t shirt Branson MO Guitar Banjo Retro Microphone picture