Your One-Stop Source For
Music Lyrics
Bass and Guitar Tabs
and More...
Music Lyrics Bass and Guitar Tabs

 

The Tabs Are Below

Learn To Read Tab
Chords Handbook
Corrections & Additions
Get Official Tab
Pearl Jam tabs @ 911Tabs

 

Why Go

 

by

 

Pearl Jam

 

from PePPeRs o0@aol.com

 

real name scott b

 

 

 

 

 

intro NC (E7)

 

|--------|---------------------------------------|------------------------

 

|--------|---------------------------------------|------------------------

 

|--------|----------------------------------5h7--|------------------------

 

|---5h7--|--0------0--5h7--0-----0--0--5h7-------|------------------------

 

 

 

 

 

 

 

--------------------------------------------------------------------------

 

--------------------------------------------------------------------------

 

--------------------------------------------------------------------------

 

--------------------------------------------------------------------------

 

 

 

 

 

verse

 

||------------------------------------------------||----------------------

 

||*----------------------------------------------*||----------------------

 

||*----------------------------------------5-----*||----------------------

 

||----0-----0--5h7--0--------0-----0--5h7---------||----------------------

 

 

 

 

 

pre-chorus

 

-------------------------------------|------------------------------------

 

-------------------------------------|------------------------------------

 

-------------------------------------|------------------------------------

 

-------------------------------0-----|------------------------------------

 

 

 

 

 

 

 

---------------------------------------|----------------------------------

 

---------------------------------------|----------------------------------

 

7-----7--------7-----------7--7--------|----------------------------------

 

---0--------0-----0--7--0--------0--0--|----------------------------------

 

 

 

 

 

Em Chorus Bm

 

----------------------------||-------------------------------|------------

 

----------------------------||*------------------------------|------------

 

----------------------------||*------7--7--------------------|------------

 

----------------------------||----------------7------7--7--7\|------------

 

 

 

 

 

G D Guitar Solo

 

--------------------------------------------------------------------------

 

--------------------------------------------------------------------------

 

-----------5-----5--5--5-----5h6---------------7-----7--7-----------------

 

-3-----3---------------------------------------0-----0--0--3-----3--3-----

 

 

 

 

 

 

 

---------|---------------------------------------------|------------------

 

---------|---------------------------------------------|------------------

 

---------|---------5-----5--5--5-----5--5--5--7--7--0--|------------------

 

3--3--0--|--5h6h7--------------------------------------|------------------

 

 

 

 

 

 

 

------------------------------------------|-------------------------------

 

------------------------------------------|-------------------------------

 

7-----7--7--7-----------------------------|-------------------------------

 

---------------3-----3--3--3--3--3--0--0--|-------------------------------

 

 

 

 

 

 

 

---------------------------------------------|----------------------------

 

---------------------------------------------|----------------------------

 

------------------------------------7--7-----|----------------------------

 

5-----5--5-----------5--5-----5--5--------0--|----------------------------

 

 

Return to my to my Pearl Jam bass tabs page

The Tablature is Copyright its respective owners.

Sign Up For My Newsletter
Subscribe | Unsubscribe

Site Map | Disclaimer | Privacy Policy | Media Kit | Submissions/Corrections

Website © 2000-2014 mattsmusicpage.com. All rights reserved.

Legal & DMCA: Matt's Music Page has been providing lyrics and tabs in a legal way, paying royalties each year to a few organizations. Then, all lyrics and tabs were removed from the site. Now, there's a new owner to the site, which purchased it August 26, 2014, and he is in negotiation to obtain licensing from BMI at the moment. If you have a specific DMCA request -- please do not hesitate to contact me via the contact button on top. I will do my very best to keep this site fully legal.

Get our toolbar!