Your One-Stop Source For
Music Lyrics
Bass and Guitar Tabs
and More...
>Music Lyrics Bass and Guitar Tabs

 

The Tabs Are Below

Learn To Read Tab
Chords Handbook
Corrections & Additions
Get Official Tab
Pearl Jam tabs @ 911Tabs

“Bushleaguer” by PearlJam

Album: Riot Act

Transcribed by: Ric Hellems

 

 

 

Guitar 2

e|---------------------------------------------------------|

B|---------------------------------------------------------|

G|-4-4-4-4---------------------4-4-4-4---------------------|

D|-4-4-4-4--4-4--5-5-5-5--4-4--4-4-4-4--4-4--5-5-5-5--4-4--|

A|-2-2-2-2--4-4--5-5-5-5--4-4--2-2-2-2--4-4--5-5-5-5--4-4--|

E|----------2-2--3-3-3-3--2-2-----------2-2--3-3-3-3--2-2--|

Guitar 2 just plays this in the background while guitar 2 kinda solos

 

Guitar 1

E|------------------------------------------------------------------------|

B|------------------------------------------------------------------------|

G|-9p7~~--9p7---6---7---9p7-6-7p6-------6b7b6~----6-9p7~~--9p7-6-7-7p6----|

D|--------------------------------9~~~----------9----------------------9--|

A|------------------------------------------------------------------------|

E|------------------------------------------------------------------------|

 

Guitar 1

E|------------------------------------------------------------------------|

B|------------------------------------------------------------------------|

G|-6b7b6~----6-9p7~~-------------------------------------------------|

D|---------9------------------------------------------------------------|

A|------------------------------------------------------------------------|

E|------------------------------------------------------------------------|

 

 

Ill finish the rest later

 

Return to my to my Pearl Jam tabs page

The Tablature is Copyright its respective owners.

Sign Up For My Newsletter
Subscribe | Unsubscribe

Site Map | Disclaimer | Privacy Policy | Media Kit | Submissions/Corrections

Website © 2000-2014 mattsmusicpage.com. All rights reserved.

Legal & DMCA: Matt's Music Page has been providing lyrics and tabs in a legal way, paying royalties each year to a few organizations. Then, all lyrics and tabs were removed from the site. Now, there's a new owner to the site, which purchased it August 26, 2014, and he is in negotiation to obtain licensing from BMI at the moment. If you have a specific DMCA request -- please do not hesitate to contact me via the contact button on top. I will do my very best to keep this site fully legal.

Get our toolbar!

 

Vintage Ingraham 8 Day Banjo Wall Clock - Runs
$24.97
Vintage Ingraham 8 Day Banjo Wall Clock - Runs picture


Women with Banjos ....... Banjo Cabinet Photo
$50.0
Women with Banjos ....... Banjo Cabinet Photo picture


c1880s CDV - Man Playing BANJO by Wm DEAN - Harrisonburg VIRGINIA w/Hat on Floor
$127.5
c1880s CDV - Man Playing BANJO by Wm DEAN - Harrisonburg VIRGINIA w/Hat on Floor picture


Brass Monkey Chimpanzee Musician Playing Banjo Guitar Statue Sculpture Figure
$34.99
Brass Monkey Chimpanzee Musician Playing Banjo Guitar Statue Sculpture Figure picture


Large Antique New Haven Clock Co. Whitney 8 Day Banjo Clock With Chimes 1920's
$174.99
Large Antique New Haven Clock Co. Whitney 8 Day Banjo Clock With Chimes 1920's picture