Your One-Stop Source For
Music Lyrics
Bass and Guitar Tabs
and More...
Music Lyrics Bass and Guitar Tabs

 

The Tabs Are Below

Learn To Read Tab
Chords Handbook
Corrections & Additions
Get Official Tab
Pearl Jam tabs @ 911Tabs

 

Author/Artist: Pearl Jam

Title: Blood

Album: Vs.

Transcribed by: Evan Cowan

Email: icowan@marin.k12.ca.us

 

G1 (stone) is GGDGBD

G2 (mike) is standard

 

-|--------------------|--------------------------|----------------------------

-|--------------------|--17--15------17--15------|----------------------------

-|--5--3--0--5--3--0--|--17--15------17--15------|----------------------------

-|--5--3--0--5--3--0--|----------17----------17--|----------------------------

-|--5--3--0--5--3--0--|--------------------------|----------------------------

-|--5--3--0--5--3--0--|--------------------------|----------------------------

G1 8x G2(enter 4th time) 4x

 

-|----------------------------------|-------------------------|---------------

-|----------------------------------|-------------------------|---------------

-|-3p0-------0----------------------|-3p0-------0-------------|---------------

-|-----3-0h3---0-----------3h5-5-5--|-----3-0h3---0-----------|---------------

-|---------------3b4r3-0-0----------|---------------3b4r3-0-0-|---------------

-|----------------------------------|-------------------------|---------------

Verse, G1 2x simile

 

-|-x-x-x-x-x-3-3-3-x-x-x-x-x-x-x-x-x-x-x-x-|-x-x-x-x-x-x-x-x-|-x-x-x-x--|-----

-|-x-x-x-x-x-3-3-3-x-x-x-x-x-x-x-x-x-x-x-x-|-x-x-x-x-x-x-x-x-|-x-x-x-x--|-----

-|-----------------------------------------|-----------------|----------|-----

-|-----------------------------------------|-----------------|----------|-----

-|-----------------------------------------|-----------------|----------|-----

-|-----------------------------------------|-----------------|----------|-----

Verse, G2(w/ wah) 2x

 

-|-------------------|-------------------|------------------------------------

-|-------------------|-5--3-----5--3-----|------------------------------------

-|-5--3--0--5--3--0--|-5--3--0--5--3--0--|------------------------------------

-|-5--3--0--5--3--0--|-5--3--0--5--3--0--|------------------------------------

-|-5--3--0--5--3--0--|-------------------|------------------------------------

-|-5--3--0--5--3--0--|-------------------|------------------------------------

G1 2x G2 2x

 

-|----------------------------------|--------------------------|--------------

-|----------------------------------|--------------------------|--------------

-|--3p0-------0---------------------|--3p0-------0-------------|--------------

-|------3-0h3---0-----------3h5-5-5-|------3-0h3---0-----------|--------------

-|----------------3b4r3-0-0---------|----------------3b4r3-0-0-|--------------

-|----------------------------------|--------------------------|--------------

Verse, G1 2x simile

 

-|-x-x-x-x-3-3-3-x-x-x-x-x--|-x-x-x-x-x-x-x-x--|------------------------------

-|-x-x-x-x-3-3-3-x-x-x-x-x--|-x-x-x-x-x-x-x-x--|------------------------------

-|---------0-0-0------------|------------------|------------------------------

-|---------0-0-0------------|------------------|------------------------------

-|--------------------------|------------------|------------------------------

-|--------------------------|------------------|------------------------------

Verse, G2 (w/ wah) etc...

 

-|-------------------|-------------------|------------------------------------

-|-------------------|-5--3-----5--3-----|------------------------------------

-|-5--3--0--5--3--0--|-5--3--0--5--3--0--|------------------------------------

-|-5--3--0--5--3--0--|-5--3--0--5--3--0--|------------------------------------

-|-5--3--0--5--3--0--|-------------------|------------------------------------

-|-5--3--0--5--3--0--|-------------------|------------------------------------

G1 4x G2 4x

 

-|-x-x-x-x-x-x-x-x-x-x-x-x---|-x-x-x-x-x-x-x-x-x-x-x-x-3-|-x-x-x-x-x-x-x-x--|-

-|-x-x-x-x-x-x-x-x-x-x-x-x-3-|-x-x-x-x-x-x-x-x-x-x-x-x-3-|-x-x-x-x-x-x-x-x--|-

-|-------------------------0-|-------------------------0-|------------------|-

-|-------------------------0-|---------------------------|------------------|-

-|---------------------------|---------------------------|------------------|-

-|---------------------------|---------------------------|------------------|-

G2 (w/ wah) etc..

 

-|--------------|----------------------------------|--------------------------

-|--------------|----------------------------------|--------------------------

-|--------------|--3p0-------0---------------------|--------------------------

-|------3h5-5-5-|------3-0h3---0-----------3h5-5-5-|--------------------------

-|-12\----------|----------------3b4r3-0-0---------|--------------------------

-|--------------|----------------------------------|--------------------------

G1 2x simile

 

-|-------------------------|-------------------|-------------------|----------

-|-------------------------|-------------------|-5--3-----5--3-----|----------

-|-------------3p0---------|-5--3--0--5--3--0--|-5--3--0--5--3--0--|----------

-|-3h5-5-5-3p0-----3p0-----|-5--3--0--5--3--0--|-5--3--0--5--3--0--|----------

-|---------------------3p0-|-5--3--0--5--3--0--|-------------------|----------

-|-------------------------|-5--3--0--5--3--0--|-------------------|----------

G1 8x G2 8x

 

-|------------|--x-x-x-x-3-3-x-x-x-x----|-------------------------------------

-|------------|--x-x-x-x-3-3-x-x-x-x-5--|-------------------------------------

-|-0----------|----------------------5--|-------------------------------------

-|-0----------|-------------------------|-------------------------------------

-|-0----------|-------------------------|-------------------------------------

-|------------|-------------------------|-------------------------------------

G1(let ring) G2

 

-|-------------------|-------------------|------------------------------------

-|-------------------|-5--3-----5--3-----|------------------------------------

-|-5--3--0--5--3--0--|-5--3--0--5--3--0--|------------------------------------

-|-5--3--0--5--3--0--|-5--3--0--5--3--0--|------------------------------------

-|-5--3--0--5--3--0--|-------------------|------------------------------------

-|-5--3--0--5--3--0--|-------------------|------------------------------------

G1 16x G2 12x

 

-|----------------------------|-----------------------------------------------

-|----------------------------|-----------------------------------------------

-|----------------------------|-----------------------------------------------

-|----------------------------|-----------------------------------------------

-|--5--3--0--5--3--0----------|-----------------------------------------------

-|----------------------------|-----------------------------------------------

After awhile, G1 plays this G1-noises, scrapes, wah, etc...

 

-|-----------------|--------------------|-------------------|----------|------

-|---------17--15--|--------------------|-------------------|-15\------|------

-|---------17--15--|--------------------|-------------------|-15\------|------

-|-----------------|--------------------|-------------------|----------|------

-|--5--3-----------|--------------------|--5-5-5-5-5-5-5-5--|-5\-------|------

-|-----------------|--------------------|-------------------|----------|------

G1 G2(repeat as necessary),then G1(till end) G2 up top

 

-|------------------------------------------------|---------------------------

-|-0-0-0-0-x-x-x-x-0h1-1-3p0-1--------------------|---------------------------

-|----------------------------------3-3-5p3-------|---------------------------

-|------------------------------3h5---------5-5\--|---------------------------

-|------------------------------------------------|---------------------------

-|------------------------------------------------|---------------------------

 

 

 

 

Return to my to my Pearl Jam tabs page

The Tablature is Copyright its respective owners.

Sign Up For My Newsletter
Subscribe | Unsubscribe

Site Map | Disclaimer | Privacy Policy | Media Kit | Submissions/Corrections

Website © 2000-2014 mattsmusicpage.com. All rights reserved.

Legal & DMCA: Matt's Music Page has been providing lyrics and tabs in a legal way, paying royalties each year to a few organizations. Then, all lyrics and tabs were removed from the site. Now, there's a new owner to the site, which purchased it August 26, 2014, and he is in negotiation to obtain licensing from BMI at the moment. If you have a specific DMCA request -- please do not hesitate to contact me via the contact button on top. I will do my very best to keep this site fully legal.

Get our toolbar!

 

1939 LYRIC THEATRE New York PHOTO
$5.83
1939 LYRIC THEATRE New York PHOTO picture


Star Spangled Banner or Marines Hymn lyrics signed by WWII Charles W. Lindberg
$10.0
Star Spangled Banner or Marines Hymn lyrics signed by WWII Charles W. Lindberg picture


OLD LARGE HISTORIC PHOTO OF THE LYRIC THEATRE, SYDNEY c1930s, WAR BONDS BOOTH
$7.42
OLD LARGE HISTORIC PHOTO OF THE LYRIC THEATRE, SYDNEY c1930s, WAR BONDS BOOTH picture


SONG OF REVOLUTION CARD SET WITH 13 MOST FAVORED COMMUNIST SONGS LYRICS + NOTES
$24.99
SONG OF REVOLUTION CARD SET WITH 13 MOST FAVORED COMMUNIST SONGS LYRICS + NOTES picture


OLD LARGE HISTORIC PHOTO OF THE LYRIC THEATRE, SYDNEY c1930s, WAR LOANS BOOTH
$7.42
OLD LARGE HISTORIC PHOTO OF THE LYRIC THEATRE, SYDNEY c1930s, WAR LOANS BOOTH picture