Your One-Stop Source For
Music Lyrics
Bass and Guitar Tabs
and More...
Music Lyrics Bass and Guitar Tabs

 

The Tabs Are Below

Learn To Read Tab
Chords Handbook
Corrections & Additions
Get Official Tab
Pearl Jam tabs @ 911Tabs

 

Artist: Pearl Jam

Title: Light Years

Album: Binaural

Dropped D tuning (D,A,D,G)

(*)hold note (/)slide -> (\)slide <- if you're right handed

I'm not very sure if the chorus is exactly right, but it goes

something like that.

I also wrote in all the little variations and stuff.

listen to the CD for timing.

 

 

Intro

G----19-19-----19-19-19-19-----19-19-19-19-------19-19-19-19-

D------------------------------------------------------------

A-17******--17-17-17-17***--17-17-17-17***----17-17-17-17-17-

D------------------------------------------------------------

 

verse 1 (3x)

G----19-19-19-19------19-19-19-19\-|---------------------------|

D----------------------------------|---------------------------|

A-17-17-17-17***---17-17-17-17-----|-5-----1-----0-3----4------|

D----------------------------------|---------------------------|

 

ending part of verse 1 chorus (2x)

G-------------------------------|-------------------------------------

D-------------------------------|-------------------------------------

A-5-0----1-----0-3----44444444--|-----5-----5--5-5--5-5-5---5-5----5--

D-------------------------------|-0-0-0-0-0-0--0-0------0-0-0-0--0-0-0

 

ending part of chorus 1

G-----------------------------------------|----------------------------|

D-----------------------------------------|----------------------------|

A-222-222222222-2222--000-000000000-0000--|-5-----1-----3----5----55-1-|

D-----------------------------------------|----------------------------|

 

verse 2 (1x)

G-----------------------------------------------------------------

D-----------------------------------------------------------------

A--5-----1------3----4----0-0-4--5-------1--1-0-0-1-0-3--0-3-3-4-4

D--------------5-------------------0-3-5--------------------------

 

 

G-------------------------------------------------|

D--------------5-3-3-5----------------------------|

A-4444-5-00-55---------0-1-1-1-0-3-3-33-44444444--|

D-------------------------------------------------|

 

chorus (with variation) (1x)

G-----------------------------------------------------------------------------

D-----------------------------------------------------------------------------

A-----5-----5--5-5--5-5-5---5---5---5---222-222222222-2222--000-000000000-0000

D-0-0-0-0-0-0--0-0------0-0-0-0---0-0-0---------------------------------------

 

 

chorus (with different variation) (1x)

G-----------------------------------------------------------------------------|

D-----------------------------------------------------------------------------|

A-----5-----5--5-5--5-5-5---5----5--5---222-222222222-2222--000-000000000-0000|

D-0-0-0-0-0-0--0-0------0-0-0-----0--0----------------------------------------|

 

 

bridge

G--------------------------------------------------------------------------

D--------------------------3-9-9-9999/-------------------------------------

A-5-----5-5-0---0-0-----00-------------0-0-0-0-0---3-3-3-3-3-2-2-2-2-2-2-2/

D-------------2-------2--------------------------6-------------------------

 

 

G-----------------------------------------------------------------------

D-----------------------------------------------------------------------

A-0-0-0-0-0---3-3-3-3-3-2-2-2-2-2-2-2-2----0-0-0-0-0---3-3-3-3-3-2-2-2-2

D-----------6----------------------------------------6------------------

 

 

G---------------------------------------------------------------------------|

D-------------------/4------------------------------------------------------|

A-2-2-2-2-3-3-3-3-3----2-2-2-2-2-2-2-2-0-3-3-3-3-3-3-3---3---3---3---3---3--|

D------------------------------------------------------5---5---5---5---5---5|

 

 

repeat the chorus 2x

after the bridge, then

go right to this...

 

ending (the fun part)

G--------------------------------------------------------------------------

D--------------------------------------------------------------------------

A-5-----5-0--1-1---0-3-3-----5---5-0-5-0--1-1--1-3----/5-5-0-5-0--1--1-3---

D----------------5-------5-5-----------------------------------------------

 

 

G-----------------------------------------------------------------------

D----------------------------------------------------------/8-7---------

A-5-5-0-5-0---1-1-0------------------1-1-0-------5-5-0-5\-------/10-8-7-

D-------------------5-3-5--7-7-7-7\--------5-3-5------------------------

 

 

G-----------------------------------------------------------------------

D----------/8-7---------------------------------------------------------

A-5-5-0-5\------10-8-7--5-5-0-5\--1-0-----------------------------------

D-------------------------------------5-3-----0------------------------

 

tabbed by Freddy Desposorio

e-mail freddyd16@hotmail.com

 

 

 

Return to my to my Pearl Jam bass tabs page

The Tablature is Copyright its respective owners.

Sign Up For My Newsletter
Subscribe | Unsubscribe

Site Map | Disclaimer | Privacy Policy | Media Kit | Submissions/Corrections

Website © 2000-2014 mattsmusicpage.com. All rights reserved.

Get our toolbar!